  0
SECTION
  2
HEADER
  9
$ACADVER
  1
AC1012
  9
$DWGCODEPAGE
  3
ansi_1252
  9
$INSBASE
 10
0.0
 20
0.0
 30
0.0
  9
$EXTMIN
 10
-2.599454
 20
-2.004914
 30
0.0
  9
$EXTMAX
 10
2.599454
 20
1.988536
 30
0.0
  9
$LIMMIN
 10
0.0
 20
0.0
  9
$LIMMAX
 10
0.0
 20
0.0
  9
$ORTHOMODE
 70
     0
  9
$REGENMODE
 70
     1
  9
$FILLMODE
 70
     1
  9
$QTEXTMODE
 70
     0
  9
$MIRRTEXT
 70
     1
  9
$DRAGMODE
 70
     2
  9
$LTSCALE
 40
1.0
  9
$OSMODE
 70
     0
  9
$ATTMODE
 70
     1
  9
$TEXTSIZE
 40
0.2
  9
$TRACEWID
 40
0.05
  9
$TEXTSTYLE
  7
STANDARD
  9
$CLAYER
  8
0
  9
$CELTYPE
  6
CONTINUOUS
  9
$CECOLOR
 62
   256
  9
$CELTSCALE
 40
1.0
  9
$DELOBJ
 70
     1
  9
$DISPSILH
 70
     0
  9
$DIMSCALE
 40
1.0
  9
$DIMASZ
 40
0.18
  9
$DIMEXO
 40
0.0625
  9
$DIMDLI
 40
0.38
  9
$DIMRND
 40
0.0
  9
$DIMDLE
 40
0.0
  9
$DIMEXE
 40
0.18
  9
$DIMTP
 40
0.0
  9
$DIMTM
 40
0.0
  9
$DIMTXT
 40
0.18
  9
$DIMCEN
 40
0.09
  9
$DIMTSZ
 40
0.0
  9
$DIMTOL
 70
     0
  9
$DIMLIM
 70
     0
  9
$DIMTIH
 70
     1
  9
$DIMTOH
 70
     1
  9
$DIMSE1
 70
     0
  9
$DIMSE2
 70
     0
  9
$DIMTAD
 70
     0
  9
$DIMZIN
 70
     0
  9
$DIMBLK
  1

  9
$DIMASO
 70
     1
  9
$DIMSHO
 70
     1
  9
$DIMPOST
  1

  9
$DIMAPOST
  1

  9
$DIMALT
 70
     0
  9
$DIMALTD
 70
     2
  9
$DIMALTF
 40
25.4
  9
$DIMLFAC
 40
1.0
  9
$DIMTOFL
 70
     0
  9
$DIMTVP
 40
0.0
  9
$DIMTIX
 70
     0
  9
$DIMSOXD
 70
     0
  9
$DIMSAH
 70
     0
  9
$DIMBLK1
  1

  9
$DIMBLK2
  1

  9
$DIMSTYLE
  2
STANDARD
  9
$DIMCLRD
 70
     0
  9
$DIMCLRE
 70
     0
  9
$DIMCLRT
 70
     0
  9
$DIMTFAC
 40
1.0
  9
$DIMGAP
 40
0.09
  9
$DIMJUST
 70
     0
  9
$DIMSD1
 70
     0
  9
$DIMSD2
 70
     0
  9
$DIMTOLJ
 70
     1
  9
$DIMTZIN
 70
     0
  9
$DIMALTZ
 70
     0
  9
$DIMALTTZ
 70
     0
  9
$DIMFIT
 70
     3
  9
$DIMUPT
 70
     0
  9
$DIMUNIT
 70
     2
  9
$DIMDEC
 70
     4
  9
$DIMTDEC
 70
     4
  9
$DIMALTU
 70
     2
  9
$DIMALTTD
 70
     2
  9
$DIMTXSTY
  7
STANDARD
  9
$DIMAUNIT
 70
     0
  9
$LUNITS
 70
     2
  9
$LUPREC
 70
     4
  9
$SKETCHINC
 40
0.1
  9
$FILLETRAD
 40
0.0
  9
$AUNITS
 70
     0
  9
$AUPREC
 70
     0
  9
$MENU
  1
acad
  9
$ELEVATION
 40
0.0
  9
$PELEVATION
 40
0.0
  9
$THICKNESS
 40
0.0
  9
$LIMCHECK
 70
     0
  9
$BLIPMODE
 70
     1
  9
$CHAMFERA
 40
0.0
  9
$CHAMFERB
 40
0.0
  9
$CHAMFERC
 40
0.0
  9
$CHAMFERD
 40
0.0
  9
$SKPOLY
 70
     0
  9
$TDCREATE
 40
0.000000000
  9
$TDUPDATE
 40
0.000000000
  9
$TDINDWG
 40
0.0000000000
  9
$TDUSRTIMER
 40
0.0000000000
  9
$USRTIMER
 70
     1
  9
$ANGBASE
 50
0.0
  9
$ANGDIR
 70
     0
  9
$PDMODE
 70
     0
  9
$PDSIZE
 40
0.0
  9
$PLINEWID
 40
0.0
  9
$COORDS
 70
     0
  9
$SPLFRAME
 70
     0
  9
$SPLINETYPE
 70
     6
  9
$SPLINESEGS
 70
     8
  9
$ATTDIA
 70
     0
  9
$ATTREQ
 70
     1
  9
$HANDLING
 70
     1
  9
$HANDSEED
  5
4CB
  9
$SURFTAB1
 70
     6
  9
$SURFTAB2
 70
     6
  9
$SURFTYPE
 70
     6
  9
$SURFU
 70
     6
  9
$SURFV
 70
     6
  9
$UCSNAME
  2

  9
$UCSORG
 10
0.0
 20
0.0
 30
0.0
  9
$UCSXDIR
 10
1.0
 20
0.0
 30
0.0
  9
$UCSYDIR
 10
0.0
 20
1.0
 30
0.0
  9
$PUCSNAME
  2

  9
$PUCSORG
 10
0.0
 20
0.0
 30
0.0
  9
$PUCSXDIR
 10
1.0
 20
0.0
 30
0.0
  9
$PUCSYDIR
 10
0.0
 20
1.0
 30
0.0
  9
$USERI1
 70
     0
  9
$USERI2
 70
     0
  9
$USERI3
 70
     0
  9
$USERI4
 70
     0
  9
$USERI5
 70
     0
  9
$USERR1
 40
0.0
  9
$USERR2
 40
0.0
  9
$USERR3
 40
0.0
  9
$USERR4
 40
0.0
  9
$USERR5
 40
0.0
  9
$WORLDVIEW
 70
     1
  9
$SHADEDGE
 70
     3
  9
$SHADEDIF
 70
    70
  9
$TILEMODE
 70
     1
  9
$MAXACTVP
 70
    16
  9
$PINSBASE
 10
0.0
 20
0.0
 30
0.0
  9
$PLIMCHECK
 70
     0
  9
$PEXTMIN
 10
1.000000E+20
 20
1.000000E+20
 30
1.000000E+20
  9
$PEXTMAX
 10
-1.000000E+20
 20
-1.000000E+20
 30
-1.000000E+20
  9
$PLIMMIN
 10
0.0
 20
0.0
  9
$PLIMMAX
 10
12.0
 20
9.0
  9
$UNITMODE
 70
     0
  9
$VISRETAIN
 70
     0
  9
$PLINEGEN
 70
     0
  9
$PSLTSCALE
 70
     0
  9
$TREEDEPTH
 70
  3020
  9
$PICKSTYLE
 70
     1
  9
$CMLSTYLE
  2
STANDARD
  9
$CMLJUST
 70
     0
  9
$CMLSCALE
 40
1.0
  9
$SAVEIMAGES
 70
     0
  0
ENDSEC
  0
SECTION
  2
CLASSES
  0
CLASS
  1
LWPOLYLINE
  2
AcDbPolyline
  3
"AutoCAD"
 90
        0
280
     0
281
     1
  0
CLASS
  1
IMAGE
  2
AcDbRasterImage
  3
ISM
 90
      127
280
     0
281
     1
  0
CLASS
  1
OLE2FRAME
  2
AcDbOle2Frame
  3
""
 90
        0
280
     0
281
     1
  0
CLASS
  1
HATCH
  2
AcDbHatch
  3
"ACAD_SEDONA"
 90
        0
280
     0
281
     1
  0
CLASS
  1
DICTIONARYVAR
  2
AcDbDictionaryVar
  3
"AutoCAD"
 90
        0
280
     0
281
     0
  0
CLASS
  1
RASTERVARIABLES
  2
AcDbRasterVariables
  3
ISM
 90
        0
280
     0
281
     0
  0
CLASS
  1
IMAGEDEF
  2
AcDbRasterImageDef
  3
ISM
 90
        0
280
     0
281
     0
  0
CLASS
  1
IMAGEDEF_REACTOR
  2
AcDbRasterImageDefReactor
  3
ISM
 90
        1
280
     0
281
     0
  0
CLASS
  1
IDBUFFER
  2
AcDbIdBuffer
  3
"Acad"
 90
        0
280
     0
281
     0
  0
CLASS
  1
SPATIAL_FILTER
  2
AcDbSpatialFilter
  3
"Acad"
 90
        0
280
     0
281
     0
  0
CLASS
  1
XRECORD
  2
AcDbXrecord
  3
"<Built In>"
 90
        0
280
     0
281
     0
  0
CLASS
  1
SORTENTSTABLE
  2
AcDbSortentsTable
  3
"AutoCAD"
 90
        0
280
     0
281
     0
  0
CLASS
  1
LAYER_INDEX
  2
AcDbLayerIndex
  3
"Acad"
 90
        0
280
     0
281
     0
  0
CLASS
  1
SPATIAL_INDEX
  2
AcDbSpatialIndex
  3
"Acad"
 90
        0
280
     0
281
     0
  0
CLASS
  1
OBJECT_PTR
  2
CAseDLPNTableRecord
  3
"ASE-LPNTableRecord"
 90
        1
280
     0
281
     0
  0
CLASS
  1
LAYOUT
  2
AcDbLayout
  3
"AutoCAD 2000"
 90
        1
280
     0
281
     0
  0
CLASS
  1
PLOTSETTINGS
  2
AcDbPlotSettings
  3
"AutoCAD 2000"
 90
        1
280
     0
281
     0
  0
CLASS
  1
ACDBDICTIONARYWDFLT
  2
AcDbDictionaryWithDefault
  3
"AutoCAD 2000"
 90
        1
280
     0
281
     0
  0
CLASS
  1
ACDBPLACEHOLDER
  2
AcDbPlaceHolder
  3
"AutoCAD 2000"
 90
        1
280
     0
281
     0
  0
CLASS
  1
VBA_PROJECT
  2
AcDbVbaProject
  3
"acadvba"
 90
        1
280
     0
281
     0
  0
CLASS
  1
WIPEOUT
  2
AcDbWipeout
  3
WipeOut|AutoCAD Express Tool|expresstools@autodesk.com
 90
      127
280
     0
281
     1
  0
CLASS
  1
WIPEOUTVARIABLES
  2
AcDbWipeoutVariables
  3
WipeOut|AutoCAD Express Tool|expresstools@autodesk.com
 90
        0
280
     0
281
     0
  0
CLASS
  1
RTEXT
  2
RText
  3
RText|AutoCAD Express Tool|expresstools@autodesk.com
 90
        0
280
     0
281
     1
  0
CLASS
  1
ARCALIGNEDTEXT
  2
AcDbArcAlignedText
  3
ATEXT|AutoCAD Express Tool|expresstools@autodesk.com
 90
        0
280
     0
281
     1
  0
ENDSEC
  0
SECTION
  2
TABLES
  0
TABLE
  2
VPORT
  5
7
100
AcDbSymbolTable
 70
     2
  0
VPORT
  5
15
100
AcDbSymbolTableRecord
100
AcDbViewportTableRecord
  2
*ACTIVE
 70
     0
 10
0.0
 20
0.0
 11
1.0
 21
1.0
 12
6.591288
 22
4.579184
 13
0.0
 23
0.0
 14
1.0
 24
1.0
 15
0.0
 25
0.0
 16
0.0
 26
0.0
 36
1.0
 17
0.0
 27
0.0
 37
0.0
 40
9.158369
 41
0.688564
 42
50.0
 43
0.0
 44
0.0
 50
0.0
 51
0.0
 71
     0
 72
   100
 73
     1
 74
     1
 75
     0
 76
     0
 77
     0
 78
     0
  0
VPORT
  5
2B
100
AcDbSymbolTableRecord
100
AcDbViewportTableRecord
  2
DCADVPORT
 70
     0
 10
-2.599454
 20
-2.004914
 11
2.599454
 21
1.988536
 12
6.21
 22
9.02
 13
0.0
 23
0.0
 14
1.0
 24
1.0
 15
0.0
 25
0.0
 16
0.0
 26
0.0
 36
1.0
 17
0.0
 27
0.0
 37
0.0
 40
18.04
 41
0.688564
 42
50.0
 43
1.0
 44
1.0
 50
0.0
 51
0.0
 71
     0
 72
   100
 73
     1
 74
     1
 75
     0
 76
     0
 77
     0
 78
     0
  0
ENDTAB
  0
TABLE
  2
LTYPE
  5
4
100
AcDbSymbolTable
 70
    15
  0
LTYPE
  5
11
100
AcDbSymbolTableRecord
100
AcDbLinetypeTableRecord
  2
BYBLOCK
 70
    64
  3

 72
    65
 73
     0
 40
0.0
  0
LTYPE
  5
12
100
AcDbSymbolTableRecord
100
AcDbLinetypeTableRecord
  2
BYLAYER
 70
    64
  3

 72
    65
 73
     0
 40
0.0
  0
LTYPE
  5
13
100
AcDbSymbolTableRecord
100
AcDbLinetypeTableRecord
  2
CONTINUOUS
 70
    64
  3
Solid line
 72
    65
 73
     0
 40
0.0
  0
LTYPE
  5
1E
100
AcDbSymbolTableRecord
100
AcDbLinetypeTableRecord
  2
CONTINUOUS
 70
     0
  3
Solid line
 72
    65
 73
     0
 40
0.0
  0
LTYPE
  5
1F
100
AcDbSymbolTableRecord
100
AcDbLinetypeTableRecord
  2
BORDER
 70
    64
  3
__ __ . __ __ . __ __ . __ __ . __ __ . __ __ .
 72
    65
 73
     6
 40
1.75
 49
0.5
 74
     0
 49
-0.25
 74
     0
 49
0.5
 74
     0
 49
-0.25
 74
     0
 49
0.0
 74
     0
 49
-0.25
 74
     0
  0
LTYPE
  5
20
100
AcDbSymbolTableRecord
100
AcDbLinetypeTableRecord
  2
BORDER2
 70
    64
  3
__.__.__.__.__.__.__.__.__.__.__.__.__.__.__.__
 72
    65
 73
     6
 40
0.875
 49
0.25
 74
     0
 49
-0.125
 74
     0
 49
0.25
 74
     0
 49
-0.125
 74
     0
 49
0.0
 74
     0
 49
-0.125
 74
     0
  0
LTYPE
  5
21
100
AcDbSymbolTableRecord
100
AcDbLinetypeTableRecord
  2
CENTER
 70
    64
  3
____ _ ____ _ ____ _ ____ _ ____ _ ____ _ ____ 
 72
    65
 73
     4
 40
2.0
 49
1.25
 74
     0
 49
-0.25
 74
     0
 49
0.25
 74
     0
 49
-0.25
 74
     0
  0
LTYPE
  5
22
100
AcDbSymbolTableRecord
100
AcDbLinetypeTableRecord
  2
DASHDOT
 70
    64
  3
__ . __ . __ . __ . __ . __ . __ . __ . __ . __
 72
    65
 73
     4
 40
1.0
 49
0.5
 74
     0
 49
-0.25
 74
     0
 49
0.0
 74
     0
 49
-0.25
 74
     0
  0
LTYPE
  5
23
100
AcDbSymbolTableRecord
100
AcDbLinetypeTableRecord
  2
DASHDOT2
 70
    64
  3
_._._._._._._._._._._._._._._._._._._._._._._._
 72
    65
 73
     4
 40
0.5
 49
0.25
 74
     0
 49
-0.125
 74
     0
 49
0.0
 74
     0
 49
-0.125
 74
     0
  0
LTYPE
  5
24
100
AcDbSymbolTableRecord
100
AcDbLinetypeTableRecord
  2
DASHED
 70
    64
  3
__ __ __ __ __ __ __ __ __ __ __ __ __ __ __ __
 72
    65
 73
     2
 40
0.75
 49
0.5
 74
     0
 49
-0.25
 74
     0
  0
LTYPE
  5
25
100
AcDbSymbolTableRecord
100
AcDbLinetypeTableRecord
  2
DIVIDE
 70
    64
  3
____ . . ____ . . ____ . . ____ . . ____ . . __
 72
    65
 73
     6
 40
1.25
 49
0.5
 74
     0
 49
-0.25
 74
     0
 49
0.0
 74
     0
 49
-0.25
 74
     0
 49
0.0
 74
     0
 49
-0.25
 74
     0
  0
LTYPE
  5
26
100
AcDbSymbolTableRecord
100
AcDbLinetypeTableRecord
  2
DIVIDE2
 70
    64
  3
__..__..__..__..__..__..__..__..__..__..__..__.
 72
    65
 73
     6
 40
0.625
 49
0.25
 74
     0
 49
-0.125
 74
     0
 49
0.0
 74
     0
 49
-0.125
 74
     0
 49
0.0
 74
     0
 49
-0.125
 74
     0
  0
LTYPE
  5
27
100
AcDbSymbolTableRecord
100
AcDbLinetypeTableRecord
  2
DOT
 70
    64
  3
. . . . . . . . . . . . . . . . . . . . . . . .
 72
    65
 73
     2
 40
0.25
 49
0.0
 74
     0
 49
-0.25
 74
     0
  0
LTYPE
  5
28
100
AcDbSymbolTableRecord
100
AcDbLinetypeTableRecord
  2
HIDDEN
 70
    64
  3
__ __ __ __ __ __ __ __ __ __ __ __ __ __ __ __
 72
    65
 73
     2
 40
0.375
 49
0.25
 74
     0
 49
-0.125
 74
     0
  0
LTYPE
  5
29
100
AcDbSymbolTableRecord
100
AcDbLinetypeTableRecord
  2
PHANTOM
 70
    64
  3
______  __  __  ______  __  __  ______  __  __ 
 72
    65
 73
     6
 40
2.5
 49
1.25
 74
     0
 49
-0.25
 74
     0
 49
0.25
 74
     0
 49
-0.25
 74
     0
 49
0.25
 74
     0
 49
-0.25
 74
     0
  0
ENDTAB
  0
TABLE
  2
LAYER
  5
2
100
AcDbSymbolTable
 70
     2
  0
LAYER
  5
14
100
AcDbSymbolTableRecord
100
AcDbLayerTableRecord
  2
0
 70
     0
 62
     7
  6
CONTINUOUS
  0
LAYER
  5
2A
100
AcDbSymbolTableRecord
100
AcDbLayerTableRecord
  2
2
 70
     0
 62
     7
  6
CONTINUOUS
  0
ENDTAB
  0
TABLE
  2
STYLE
  5
3
100
AcDbSymbolTable
 70
     2
  0
STYLE
  5
17
100
AcDbSymbolTableRecord
100
AcDbTextStyleTableRecord
  2
STANDARD
 70
     0
 40
0.0
 41
1.0
 50
0.0
 71
     0
 42
0.0
  3
txt
  4

  0
STYLE
  5
1D
100
AcDbSymbolTableRecord
100
AcDbTextStyleTableRecord
  2
BIGFONT
 70
    64
 40
3.0
 41
1.0
 50
0.0
 71
     0
 42
0.2
  3

  4
BIGFONT
  0
ENDTAB
  0
TABLE
  2
VIEW
  5
5
100
AcDbSymbolTable
 70
     0
  0
ENDTAB
  0
TABLE
  2
UCS
  5
6
100
AcDbSymbolTable
 70
     0
  0
ENDTAB
  0
TABLE
  2
APPID
  5
8
100
AcDbSymbolTable
 70
     1
  0
APPID
  5
16
100
AcDbSymbolTableRecord
100
AcDbRegAppTableRecord
  2
ACAD
 70
     0
  0
ENDTAB
  0
TABLE
  2
DIMSTYLE
  5
9
100
AcDbSymbolTable
 70
     1
  0
DIMSTYLE
105
18
100
AcDbSymbolTableRecord
100
AcDbDimStyleTableRecord
  2
STANDARD
 70
     0
  3

  4

  5

  6

  7

 40
1.0
 41
0.18
 42
0.0625
 43
0.38
 44
0.18
 45
0.0
 46
0.0
 47
0.0
 48
0.0
 71
     0
 72
     0
 73
     1
 74
     1
 75
     0
 76
     0
 77
     0
 78
     0
140
0.18
141
0.09
142
0.0
143
25.4
144
1.0
145
0.0
146
1.0
147
0.09
170
     0
171
     2
172
     0
173
     0
174
     0
175
     0
176
     0
177
     0
178
     0
270
     2
271
     4
272
     4
273
     2
274
     2
275
     0
280
     0
281
     0
282
     0
283
     1
284
     0
285
     0
286
     0
287
     0
288
     0
340
17
  0
ENDTAB
  0
TABLE
  2
BLOCK_RECORD
  5
1
100
AcDbSymbolTable
 70
     0
  0
BLOCK_RECORD
  5
A
100
AcDbSymbolTableRecord
100
AcDbBlockTableRecord
  2
*MODEL_SPACE
  0
BLOCK_RECORD
  5
B
100
AcDbSymbolTableRecord
100
AcDbBlockTableRecord
  2
*PAPER_SPACE
  0
ENDTAB
  0
ENDSEC
  0
SECTION
  2
BLOCKS
  0
BLOCK
  5
D
100
AcDbEntity
  8
0
100
AcDbBlockBegin
  2
*MODEL_SPACE
 70
     0
 10
0.0
 20
0.0
 30
0.0
  3
*MODEL_SPACE
  1

  0
ENDBLK
  5
E
100
AcDbEntity
  8
0
100
AcDbBlockEnd
  0
BLOCK
  5
F
100
AcDbEntity
 67
     1
  8
0
100
AcDbBlockBegin
  2
*PAPER_SPACE
 70
     0
 10
0.0
 20
0.0
 30
0.0
  3
*PAPER_SPACE
  1

  0
ENDBLK
  5
10
100
AcDbEntity
 67
     1
  8
0
100
AcDbBlockEnd
  0
ENDSEC
  0
SECTION
  2
ENTITIES
  0
POLYLINE
  5
2C
100
AcDbEntity
  8
2
  6
CONTINUOUS
 62
     7
 48
0.125
100
AcDb2dPolyline
 66
     1
 10
0.0
 20
0.0
 30
0.0
 70
   128
  0
VERTEX
  5
2D
100
AcDbEntity
  8
2
  6
CONTINUOUS
 62
     7
 48
0.125
100
AcDbVertex
100
AcDb2dVertex
 10
1.739536
 20
1.424006
 30
0.0
 40
0.0
 41
0.0
  0
VERTEX
  5
2E
100
AcDbEntity
  8
2
  6
CONTINUOUS
 62
     7
 48
0.125
100
AcDbVertex
100
AcDb2dVertex
 10
1.739536
 20
0.904441
 30
0.0
 40
0.0
 41
0.0
  0
SEQEND
  5
2F
100
AcDbEntity
  8
0
  0
POLYLINE
  5
30
100
AcDbEntity
  8
2
  6
CONTINUOUS
 62
     7
 48
0.125
100
AcDb2dPolyline
 66
     1
 10
0.0
 20
0.0
 30
0.0
 70
   128
  0
VERTEX
  5
31
100
AcDbEntity
  8
2
  6
CONTINUOUS
 62
     7
 48
0.125
100
AcDbVertex
100
AcDb2dVertex
 10
1.580784
 20
0.735245
 30
0.0
 40
0.0
 41
0.0
  0
VERTEX
  5
32
100
AcDbEntity
  8
2
  6
CONTINUOUS
 62
     7
 48
0.125
100
AcDbVertex
100
AcDb2dVertex
 10
1.580784
 20
0.715074
 30
0.0
 40
0.0
 41
0.0
  0
SEQEND
  5
33
100
AcDbEntity
  8
0
  0
POLYLINE
  5
34
100
AcDbEntity
  8
2
  6
CONTINUOUS
 62
     7
 48
0.125
100
AcDb2dPolyline
 66
     1
 10
0.0
 20
0.0
 30
0.0
 70
   128
  0
VERTEX
  5
35
100
AcDbEntity
  8
2
  6
CONTINUOUS
 62
     7
 48
0.125
100
AcDbVertex
100
AcDb2dVertex
 10
1.580784
 20
0.715074
 30
0.0
 40
0.0
 41
0.0
  0
VERTEX
  5
36
100
AcDbEntity
  8
2
  6
CONTINUOUS
 62
     7
 48
0.125
100
AcDbVertex
100
AcDb2dVertex
 10
2.599454
 20
0.715074
 30
0.0
 40
0.0
 41
0.0
  0
SEQEND
  5
37
100
AcDbEntity
  8
0
  0
POLYLINE
  5
38
100
AcDbEntity
  8
2
  6
CONTINUOUS
 62
     7
 48
0.125
100
AcDb2dPolyline
 66
     1
 10
0.0
 20
0.0
 30
0.0
 70
   128
  0
VERTEX
  5
39
100
AcDbEntity
  8
2
  6
CONTINUOUS
 62
     7
 48
0.125
100
AcDbVertex
100
AcDb2dVertex
 10
2.599454
 20
0.715074
 30
0.0
 40
0.0
 41
0.0
  0
VERTEX
  5
3A
100
AcDbEntity
  8
2
  6
CONTINUOUS
 62
     7
 48
0.125
100
AcDbVertex
100
AcDb2dVertex
 10
2.599454
 20
-0.702817
 30
0.0
 40
0.0
 41
0.0
  0
SEQEND
  5
3B
100
AcDbEntity
  8
0
  0
POLYLINE
  5
3C
100
AcDbEntity
  8
2
  6
CONTINUOUS
 62
     7
 48
0.125
100
AcDb2dPolyline
 66
     1
 10
0.0
 20
0.0
 30
0.0
 70
   128
  0
VERTEX
  5
3D
100
AcDbEntity
  8
2
  6
CONTINUOUS
 62
     7
 48
0.125
100
AcDbVertex
100
AcDb2dVertex
 10
2.599454
 20
-0.702817
 30
0.0
 40
0.0
 41
0.0
  0
VERTEX
  5
3E
100
AcDbEntity
  8
2
  6
CONTINUOUS
 62
     7
 48
0.125
100
AcDbVertex
100
AcDb2dVertex
 10
1.589272
 20
-0.702817
 30
0.0
 40
0.0
 41
0.0
  0
SEQEND
  5
3F
100
AcDbEntity
  8
0
  0
POLYLINE
  5
40
100
AcDbEntity
  8
2
  6
CONTINUOUS
 62
     7
 48
0.125
100
AcDb2dPolyline
 66
     1
 10
0.0
 20
0.0
 30
0.0
 70
   128
  0
VERTEX
  5
41
100
AcDbEntity
  8
2
  6
CONTINUOUS
 62
     7
 48
0.125
100
AcDbVertex
100
AcDb2dVertex
 10
1.722643
 20
-0.865589
 30
0.0
 40
0.0
 41
0.0
  0
VERTEX
  5
42
100
AcDbEntity
  8
2
  6
CONTINUOUS
 62
     7
 48
0.125
100
AcDbVertex
100
AcDb2dVertex
 10
1.857687
 20
-0.912867
 30
0.0
 40
0.0
 41
0.0
  0
SEQEND
  5
43
100
AcDbEntity
  8
0
  0
POLYLINE
  5
44
100
AcDbEntity
  8
2
  6
CONTINUOUS
 62
     7
 48
0.125
100
AcDb2dPolyline
 66
     1
 10
0.0
 20
0.0
 30
0.0
 70
   128
  0
VERTEX
  5
45
100
AcDbEntity
  8
2
  6
CONTINUOUS
 62
     7
 48
0.125
100
AcDbVertex
100
AcDb2dVertex
 10
-1.722643
 20
-0.865589
 30
0.0
 40
0.0
 41
0.0
  0
VERTEX
  5
46
100
AcDbEntity
  8
2
  6
CONTINUOUS
 62
     7
 48
0.125
100
AcDbVertex
100
AcDb2dVertex
 10
-1.857687
 20
-0.912867
 30
0.0
 40
0.0
 41
0.0
  0
SEQEND
  5
47
100
AcDbEntity
  8
0
  0
POLYLINE
  5
48
100
AcDbEntity
  8
2
  6
CONTINUOUS
 62
     7
 48
0.125
100
AcDb2dPolyline
 66
     1
 10
0.0
 20
0.0
 30
0.0
 70
   128
  0
VERTEX
  5
49
100
AcDbEntity
  8
2
  6
CONTINUOUS
 62
     7
 48
0.125
100
AcDbVertex
100
AcDb2dVertex
 10
-2.599454
 20
-0.702817
 30
0.0
 40
0.0
 41
0.0
  0
VERTEX
  5
4A
100
AcDbEntity
  8
2
  6
CONTINUOUS
 62
     7
 48
0.125
100
AcDbVertex
100
AcDb2dVertex
 10
-1.589272
 20
-0.702817
 30
0.0
 40
0.0
 41
0.0
  0
SEQEND
  5
4B
100
AcDbEntity
  8
0
  0
POLYLINE
  5
4C
100
AcDbEntity
  8
2
  6
CONTINUOUS
 62
     7
 48
0.125
100
AcDb2dPolyline
 66
     1
 10
0.0
 20
0.0
 30
0.0
 70
   128
  0
VERTEX
  5
4D
100
AcDbEntity
  8
2
  6
CONTINUOUS
 62
     7
 48
0.125
100
AcDbVertex
100
AcDb2dVertex
 10
-2.599454
 20
0.715074
 30
0.0
 40
0.0
 41
0.0
  0
VERTEX
  5
4E
100
AcDbEntity
  8
2
  6
CONTINUOUS
 62
     7
 48
0.125
100
AcDbVertex
100
AcDb2dVertex
 10
-2.599454
 20
-0.702817
 30
0.0
 40
0.0
 41
0.0
  0
SEQEND
  5
4F
100
AcDbEntity
  8
0
  0
POLYLINE
  5
50
100
AcDbEntity
  8
2
  6
CONTINUOUS
 62
     7
 48
0.125
100
AcDb2dPolyline
 66
     1
 10
0.0
 20
0.0
 30
0.0
 70
   128
  0
VERTEX
  5
51
100
AcDbEntity
  8
2
  6
CONTINUOUS
 62
     7
 48
0.125
100
AcDbVertex
100
AcDb2dVertex
 10
-1.580784
 20
0.715074
 30
0.0
 40
0.0
 41
0.0
  0
VERTEX
  5
52
100
AcDbEntity
  8
2
  6
CONTINUOUS
 62
     7
 48
0.125
100
AcDbVertex
100
AcDb2dVertex
 10
-2.599454
 20
0.715074
 30
0.0
 40
0.0
 41
0.0
  0
SEQEND
  5
53
100
AcDbEntity
  8
0
  0
POLYLINE
  5
54
100
AcDbEntity
  8
2
  6
CONTINUOUS
 62
     7
 48
0.125
100
AcDb2dPolyline
 66
     1
 10
0.0
 20
0.0
 30
0.0
 70
   128
  0
VERTEX
  5
55
100
AcDbEntity
  8
2
  6
CONTINUOUS
 62
     7
 48
0.125
100
AcDbVertex
100
AcDb2dVertex
 10
-1.580784
 20
0.735245
 30
0.0
 40
0.0
 41
0.0
  0
VERTEX
  5
56
100
AcDbEntity
  8
2
  6
CONTINUOUS
 62
     7
 48
0.125
100
AcDbVertex
100
AcDb2dVertex
 10
-1.580784
 20
0.715074
 30
0.0
 40
0.0
 41
0.0
  0
SEQEND
  5
57
100
AcDbEntity
  8
0
  0
POLYLINE
  5
58
100
AcDbEntity
  8
2
  6
CONTINUOUS
 62
     7
 48
0.125
100
AcDb2dPolyline
 66
     1
 10
0.0
 20
0.0
 30
0.0
 70
   128
  0
VERTEX
  5
59
100
AcDbEntity
  8
2
  6
CONTINUOUS
 62
     7
 48
0.125
100
AcDbVertex
100
AcDb2dVertex
 10
-1.739536
 20
1.424006
 30
0.0
 40
0.0
 41
0.0
  0
VERTEX
  5
5A
100
AcDbEntity
  8
2
  6
CONTINUOUS
 62
     7
 48
0.125
100
AcDbVertex
100
AcDb2dVertex
 10
-1.739536
 20
0.904441
 30
0.0
 40
0.0
 41
0.0
  0
SEQEND
  5
5B
100
AcDbEntity
  8
0
  0
ARC
  5
5C
100
AcDbEntity
  8
2
  6
CONTINUOUS
 62
     7
 48
0.125
100
AcDbCircle
 10
0.651975
 20
0.796629
 30
0.0
 40
2.876407
100
AcDbArc
 50
240.853513
 51
256.899318
  0
ARC
  5
5D
100
AcDbEntity
  8
2
  6
CONTINUOUS
 62
     7
 48
0.125
100
AcDbCircle
 10
3.174549
 20
4.870882
 30
0.0
 40
7.666496
100
AcDbArc
 50
228.974622
 51
239.217945
  0
ARC
  5
5E
100
AcDbEntity
  8
2
  6
CONTINUOUS
 62
     7
 48
0.125
100
AcDbCircle
 10
-1.808697
 20
-0.619784
 30
0.0
 40
0.260434
100
AcDbArc
 50
289.294819
 51
335.14543
  0
ARC
  5
5F
100
AcDbEntity
  8
2
  6
CONTINUOUS
 62
     7
 48
0.125
100
AcDbCircle
 10
-1.589272
 20
-0.721426
 30
0.0
 40
0.01861
100
AcDbArc
 50
335.145432
 51
90.0
  0
ARC
  5
60
100
AcDbEntity
  8
2
  6
CONTINUOUS
 62
     7
 48
0.125
100
AcDbCircle
 10
-1.750323
 20
0.735245
 30
0.0
 40
0.16954
100
AcDbArc
 50
0.0
 51
86.351945
  0
ARC
  5
61
100
AcDbEntity
  8
2
  6
CONTINUOUS
 62
     7
 48
0.125
100
AcDbCircle
 10
-1.772354
 20
4.48749
 30
0.0
 40
3.06366
100
AcDbArc
 50
270.613762
 51
305.345721
  0
ARC
  5
62
100
AcDbEntity
  8
2
  6
CONTINUOUS
 62
     7
 48
0.125
100
AcDbCircle
 10
1.772354
 20
4.48749
 30
0.0
 40
3.06366
100
AcDbArc
 50
234.654279
 51
269.386238
  0
ARC
  5
63
100
AcDbEntity
  8
2
  6
CONTINUOUS
 62
     7
 48
0.125
100
AcDbCircle
 10
-0.651975
 20
0.796629
 30
0.0
 40
2.876407
100
AcDbArc
 50
283.100682
 51
299.146487
  0
ARC
  5
64
100
AcDbEntity
  8
2
  6
CONTINUOUS
 62
     7
 48
0.125
100
AcDbCircle
 10
-3.174549
 20
4.870882
 30
0.0
 40
7.666496
100
AcDbArc
 50
300.782055
 51
311.025378
  0
ARC
  5
65
100
AcDbEntity
  8
2
  6
CONTINUOUS
 62
     7
 48
0.125
100
AcDbCircle
 10
1.589272
 20
-0.721426
 30
0.0
 40
0.01861
100
AcDbArc
 50
90.0
 51
204.854568
  0
ARC
  5
66
100
AcDbEntity
  8
2
  6
CONTINUOUS
 62
     7
 48
0.125
100
AcDbCircle
 10
1.808697
 20
-0.619784
 30
0.0
 40
0.260434
100
AcDbArc
 50
204.85457
 51
250.705181
  0
ARC
  5
67
100
AcDbEntity
  8
2
  6
CONTINUOUS
 62
     7
 48
0.125
100
AcDbCircle
 10
1.750323
 20
0.735245
 30
0.0
 40
0.16954
100
AcDbArc
 50
93.648055
 51
180.0
  0
POLYLINE
  5
68
100
AcDbEntity
  8
2
  6
CONTINUOUS
 62
     7
 48
0.125
100
AcDb2dPolyline
 66
     1
 10
0.0
 20
0.0
 30
0.0
 70
   128
  0
VERTEX
  5
69
100
AcDbEntity
  8
2
  6
CONTINUOUS
 62
     7
 48
0.125
100
AcDbVertex
100
AcDb2dVertex
 10
-2.238425
 20
-0.361063
 30
0.0
 40
0.0
 41
0.0
  0
VERTEX
  5
6A
100
AcDbEntity
  8
2
  6
CONTINUOUS
 62
     7
 48
0.125
100
AcDbVertex
100
AcDb2dVertex
 10
-2.14956
 20
-0.361063
 30
0.0
 40
0.0
 41
0.0
  0
SEQEND
  5
6B
100
AcDbEntity
  8
0
  0
POLYLINE
  5
6C
100
AcDbEntity
  8
2
  6
CONTINUOUS
 62
     7
 48
0.125
100
AcDb2dPolyline
 66
     1
 10
0.0
 20
0.0
 30
0.0
 70
   128
  0
VERTEX
  5
6D
100
AcDbEntity
  8
2
  6
CONTINUOUS
 62
     7
 48
0.125
100
AcDbVertex
100
AcDb2dVertex
 10
-2.045895
 20
-0.361063
 30
0.0
 40
0.0
 41
0.0
  0
VERTEX
  5
6E
100
AcDbEntity
  8
2
  6
CONTINUOUS
 62
     7
 48
0.125
100
AcDbVertex
100
AcDb2dVertex
 10
-1.95703
 20
-0.361063
 30
0.0
 40
0.0
 41
0.0
  0
SEQEND
  5
6F
100
AcDbEntity
  8
0
  0
POLYLINE
  5
70
100
AcDbEntity
  8
2
  6
CONTINUOUS
 62
     7
 48
0.125
100
AcDb2dPolyline
 66
     1
 10
0.0
 20
0.0
 30
0.0
 70
   128
  0
VERTEX
  5
71
100
AcDbEntity
  8
2
  6
CONTINUOUS
 62
     7
 48
0.125
100
AcDbVertex
100
AcDb2dVertex
 10
-1.930615
 20
-0.361063
 30
0.0
 40
0.0
 41
0.0
  0
VERTEX
  5
72
100
AcDbEntity
  8
2
  6
CONTINUOUS
 62
     7
 48
0.125
100
AcDbVertex
100
AcDb2dVertex
 10
-1.841082
 20
-0.361063
 30
0.0
 40
0.0
 41
0.0
  0
SEQEND
  5
73
100
AcDbEntity
  8
0
  0
POLYLINE
  5
74
100
AcDbEntity
  8
2
  6
CONTINUOUS
 62
     7
 48
0.125
100
AcDb2dPolyline
 66
     1
 10
0.0
 20
0.0
 30
0.0
 70
   128
  0
VERTEX
  5
75
100
AcDbEntity
  8
2
  6
CONTINUOUS
 62
     7
 48
0.125
100
AcDbVertex
100
AcDb2dVertex
 10
-1.691108
 20
-0.361063
 30
0.0
 40
0.0
 41
0.0
  0
VERTEX
  5
76
100
AcDbEntity
  8
2
  6
CONTINUOUS
 62
     7
 48
0.125
100
AcDbVertex
100
AcDb2dVertex
 10
-1.601575
 20
-0.361063
 30
0.0
 40
0.0
 41
0.0
  0
SEQEND
  5
77
100
AcDbEntity
  8
0
  0
POLYLINE
  5
78
100
AcDbEntity
  8
2
  6
CONTINUOUS
 62
     7
 48
0.125
100
AcDb2dPolyline
 66
     1
 10
0.0
 20
0.0
 30
0.0
 70
   128
  0
VERTEX
  5
79
100
AcDbEntity
  8
2
  6
CONTINUOUS
 62
     7
 48
0.125
100
AcDbVertex
100
AcDb2dVertex
 10
-1.569324
 20
-0.361063
 30
0.0
 40
0.0
 41
0.0
  0
VERTEX
  5
7A
100
AcDbEntity
  8
2
  6
CONTINUOUS
 62
     7
 48
0.125
100
AcDbVertex
100
AcDb2dVertex
 10
-1.480459
 20
-0.361063
 30
0.0
 40
0.0
 41
0.0
  0
SEQEND
  5
7B
100
AcDbEntity
  8
0
  0
POLYLINE
  5
7C
100
AcDbEntity
  8
2
  6
CONTINUOUS
 62
     7
 48
0.125
100
AcDb2dPolyline
 66
     1
 10
0.0
 20
0.0
 30
0.0
 70
   128
  0
VERTEX
  5
7D
100
AcDbEntity
  8
2
  6
CONTINUOUS
 62
     7
 48
0.125
100
AcDbVertex
100
AcDb2dVertex
 10
-1.37386
 20
-0.361063
 30
0.0
 40
0.0
 41
0.0
  0
VERTEX
  5
7E
100
AcDbEntity
  8
2
  6
CONTINUOUS
 62
     7
 48
0.125
100
AcDbVertex
100
AcDb2dVertex
 10
-1.284994
 20
-0.361063
 30
0.0
 40
0.0
 41
0.0
  0
SEQEND
  5
7F
100
AcDbEntity
  8
0
  0
POLYLINE
  5
80
100
AcDbEntity
  8
2
  6
CONTINUOUS
 62
     7
 48
0.125
100
AcDb2dPolyline
 66
     1
 10
0.0
 20
0.0
 30
0.0
 70
   128
  0
VERTEX
  5
81
100
AcDbEntity
  8
2
  6
CONTINUOUS
 62
     7
 48
0.125
100
AcDbVertex
100
AcDb2dVertex
 10
-1.225908
 20
-0.361063
 30
0.0
 40
0.0
 41
0.0
  0
VERTEX
  5
82
100
AcDbEntity
  8
2
  6
CONTINUOUS
 62
     7
 48
0.125
100
AcDbVertex
100
AcDb2dVertex
 10
-1.012507
 20
-0.361063
 30
0.0
 40
0.0
 41
0.0
  0
SEQEND
  5
83
100
AcDbEntity
  8
0
  0
POLYLINE
  5
84
100
AcDbEntity
  8
2
  6
CONTINUOUS
 62
     7
 48
0.125
100
AcDb2dPolyline
 66
     1
 10
0.0
 20
0.0
 30
0.0
 70
   128
  0
VERTEX
  5
85
100
AcDbEntity
  8
2
  6
CONTINUOUS
 62
     7
 48
0.125
100
AcDbVertex
100
AcDb2dVertex
 10
-0.984145
 20
-0.361063
 30
0.0
 40
0.0
 41
0.0
  0
VERTEX
  5
86
100
AcDbEntity
  8
2
  6
CONTINUOUS
 62
     7
 48
0.125
100
AcDbVertex
100
AcDb2dVertex
 10
-0.75316
 20
-0.361063
 30
0.0
 40
0.0
 41
0.0
  0
SEQEND
  5
87
100
AcDbEntity
  8
0
  0
POLYLINE
  5
88
100
AcDbEntity
  8
2
  6
CONTINUOUS
 62
     7
 48
0.125
100
AcDb2dPolyline
 66
     1
 10
0.0
 20
0.0
 30
0.0
 70
   128
  0
VERTEX
  5
89
100
AcDbEntity
  8
2
  6
CONTINUOUS
 62
     7
 48
0.125
100
AcDbVertex
100
AcDb2dVertex
 10
-0.62702
 20
-0.361063
 30
0.0
 40
0.0
 41
0.0
  0
VERTEX
  5
8A
100
AcDbEntity
  8
2
  6
CONTINUOUS
 62
     7
 48
0.125
100
AcDbVertex
100
AcDb2dVertex
 10
-0.538391
 20
-0.361063
 30
0.0
 40
0.0
 41
0.0
  0
SEQEND
  5
8B
100
AcDbEntity
  8
0
  0
POLYLINE
  5
8C
100
AcDbEntity
  8
2
  6
CONTINUOUS
 62
     7
 48
0.125
100
AcDb2dPolyline
 66
     1
 10
0.0
 20
0.0
 30
0.0
 70
   128
  0
VERTEX
  5
8D
100
AcDbEntity
  8
2
  6
CONTINUOUS
 62
     7
 48
0.125
100
AcDbVertex
100
AcDb2dVertex
 10
-0.17724
 20
-0.361063
 30
0.0
 40
0.0
 41
0.0
  0
VERTEX
  5
8E
100
AcDbEntity
  8
2
  6
CONTINUOUS
 62
     7
 48
0.125
100
AcDbVertex
100
AcDb2dVertex
 10
0.005686
 20
-0.361063
 30
0.0
 40
0.0
 41
0.0
  0
SEQEND
  5
8F
100
AcDbEntity
  8
0
  0
POLYLINE
  5
90
100
AcDbEntity
  8
2
  6
CONTINUOUS
 62
     7
 48
0.125
100
AcDb2dPolyline
 66
     1
 10
0.0
 20
0.0
 30
0.0
 70
   128
  0
VERTEX
  5
91
100
AcDbEntity
  8
2
  6
CONTINUOUS
 62
     7
 48
0.125
100
AcDbVertex
100
AcDb2dVertex
 10
0.124214
 20
-0.361063
 30
0.0
 40
0.0
 41
0.0
  0
VERTEX
  5
92
100
AcDbEntity
  8
2
  6
CONTINUOUS
 62
     7
 48
0.125
100
AcDbVertex
100
AcDb2dVertex
 10
0.213754
 20
-0.361063
 30
0.0
 40
0.0
 41
0.0
  0
SEQEND
  5
93
100
AcDbEntity
  8
0
  0
POLYLINE
  5
94
100
AcDbEntity
  8
2
  6
CONTINUOUS
 62
     7
 48
0.125
100
AcDb2dPolyline
 66
     1
 10
0.0
 20
0.0
 30
0.0
 70
   128
  0
VERTEX
  5
95
100
AcDbEntity
  8
2
  6
CONTINUOUS
 62
     7
 48
0.125
100
AcDbVertex
100
AcDb2dVertex
 10
0.363725
 20
-0.361063
 30
0.0
 40
0.0
 41
0.0
  0
VERTEX
  5
96
100
AcDbEntity
  8
2
  6
CONTINUOUS
 62
     7
 48
0.125
100
AcDbVertex
100
AcDb2dVertex
 10
0.453257
 20
-0.361063
 30
0.0
 40
0.0
 41
0.0
  0
SEQEND
  5
97
100
AcDbEntity
  8
0
  0
POLYLINE
  5
98
100
AcDbEntity
  8
2
  6
CONTINUOUS
 62
     7
 48
0.125
100
AcDb2dPolyline
 66
     1
 10
0.0
 20
0.0
 30
0.0
 70
   128
  0
VERTEX
  5
99
100
AcDbEntity
  8
2
  6
CONTINUOUS
 62
     7
 48
0.125
100
AcDbVertex
100
AcDb2dVertex
 10
0.532073
 20
-0.361063
 30
0.0
 40
0.0
 41
0.0
  0
VERTEX
  5
9A
100
AcDbEntity
  8
2
  6
CONTINUOUS
 62
     7
 48
0.125
100
AcDbVertex
100
AcDb2dVertex
 10
0.642209
 20
-0.361063
 30
0.0
 40
0.0
 41
0.0
  0
SEQEND
  5
9B
100
AcDbEntity
  8
0
  0
POLYLINE
  5
9C
100
AcDbEntity
  8
2
  6
CONTINUOUS
 62
     7
 48
0.125
100
AcDb2dPolyline
 66
     1
 10
0.0
 20
0.0
 30
0.0
 70
   128
  0
VERTEX
  5
9D
100
AcDbEntity
  8
2
  6
CONTINUOUS
 62
     7
 48
0.125
100
AcDbVertex
100
AcDb2dVertex
 10
0.768018
 20
-0.361063
 30
0.0
 40
0.0
 41
0.0
  0
VERTEX
  5
9E
100
AcDbEntity
  8
2
  6
CONTINUOUS
 62
     7
 48
0.125
100
AcDbVertex
100
AcDb2dVertex
 10
0.872996
 20
-0.361063
 30
0.0
 40
0.0
 41
0.0
  0
SEQEND
  5
9F
100
AcDbEntity
  8
0
  0
POLYLINE
  5
A0
100
AcDbEntity
  8
2
  6
CONTINUOUS
 62
     7
 48
0.125
100
AcDb2dPolyline
 66
     1
 10
0.0
 20
0.0
 30
0.0
 70
   128
  0
VERTEX
  5
A1
100
AcDbEntity
  8
2
  6
CONTINUOUS
 62
     7
 48
0.125
100
AcDbVertex
100
AcDb2dVertex
 10
0.936862
 20
-0.361063
 30
0.0
 40
0.0
 41
0.0
  0
VERTEX
  5
A2
100
AcDbEntity
  8
2
  6
CONTINUOUS
 62
     7
 48
0.125
100
AcDbVertex
100
AcDb2dVertex
 10
1.119789
 20
-0.361063
 30
0.0
 40
0.0
 41
0.0
  0
SEQEND
  5
A3
100
AcDbEntity
  8
0
  0
POLYLINE
  5
A4
100
AcDbEntity
  8
2
  6
CONTINUOUS
 62
     7
 48
0.125
100
AcDb2dPolyline
 66
     1
 10
0.0
 20
0.0
 30
0.0
 70
   128
  0
VERTEX
  5
A5
100
AcDbEntity
  8
2
  6
CONTINUOUS
 62
     7
 48
0.125
100
AcDbVertex
100
AcDb2dVertex
 10
1.385047
 20
-0.361063
 30
0.0
 40
0.0
 41
0.0
  0
VERTEX
  5
A6
100
AcDbEntity
  8
2
  6
CONTINUOUS
 62
     7
 48
0.125
100
AcDbVertex
100
AcDb2dVertex
 10
1.433903
 20
-0.361063
 30
0.0
 40
0.0
 41
0.0
  0
SEQEND
  5
A7
100
AcDbEntity
  8
0
  0
POLYLINE
  5
A8
100
AcDbEntity
  8
2
  6
CONTINUOUS
 62
     7
 48
0.125
100
AcDb2dPolyline
 66
     1
 10
0.0
 20
0.0
 30
0.0
 70
   128
  0
VERTEX
  5
A9
100
AcDbEntity
  8
2
  6
CONTINUOUS
 62
     7
 48
0.125
100
AcDbVertex
100
AcDb2dVertex
 10
1.727522
 20
-0.361063
 30
0.0
 40
0.0
 41
0.0
  0
VERTEX
  5
AA
100
AcDbEntity
  8
2
  6
CONTINUOUS
 62
     7
 48
0.125
100
AcDbVertex
100
AcDb2dVertex
 10
1.762956
 20
-0.361063
 30
0.0
 40
0.0
 41
0.0
  0
SEQEND
  5
AB
100
AcDbEntity
  8
0
  0
POLYLINE
  5
AC
100
AcDbEntity
  8
2
  6
CONTINUOUS
 62
     7
 48
0.125
100
AcDb2dPolyline
 66
     1
 10
0.0
 20
0.0
 30
0.0
 70
   128
  0
VERTEX
  5
AD
100
AcDbEntity
  8
2
  6
CONTINUOUS
 62
     7
 48
0.125
100
AcDbVertex
100
AcDb2dVertex
 10
1.945413
 20
-0.361063
 30
0.0
 40
0.0
 41
0.0
  0
VERTEX
  5
AE
100
AcDbEntity
  8
2
  6
CONTINUOUS
 62
     7
 48
0.125
100
AcDbVertex
100
AcDb2dVertex
 10
2.034279
 20
-0.361063
 30
0.0
 40
0.0
 41
0.0
  0
SEQEND
  5
AF
100
AcDbEntity
  8
0
  0
POLYLINE
  5
B0
100
AcDbEntity
  8
2
  6
CONTINUOUS
 62
     7
 48
0.125
100
AcDb2dPolyline
 66
     1
 10
0.0
 20
0.0
 30
0.0
 70
   128
  0
VERTEX
  5
B1
100
AcDbEntity
  8
2
  6
CONTINUOUS
 62
     7
 48
0.125
100
AcDbVertex
100
AcDb2dVertex
 10
-2.238425
 20
0.354473
 30
0.0
 40
0.0
 41
0.0
  0
VERTEX
  5
B2
100
AcDbEntity
  8
2
  6
CONTINUOUS
 62
     7
 48
0.125
100
AcDbVertex
100
AcDb2dVertex
 10
-2.14956
 20
0.354473
 30
0.0
 40
0.0
 41
0.0
  0
SEQEND
  5
B3
100
AcDbEntity
  8
0
  0
POLYLINE
  5
B4
100
AcDbEntity
  8
2
  6
CONTINUOUS
 62
     7
 48
0.125
100
AcDb2dPolyline
 66
     1
 10
0.0
 20
0.0
 30
0.0
 70
   128
  0
VERTEX
  5
B5
100
AcDbEntity
  8
2
  6
CONTINUOUS
 62
     7
 48
0.125
100
AcDbVertex
100
AcDb2dVertex
 10
-2.045895
 20
0.354473
 30
0.0
 40
0.0
 41
0.0
  0
VERTEX
  5
B6
100
AcDbEntity
  8
2
  6
CONTINUOUS
 62
     7
 48
0.125
100
AcDbVertex
100
AcDb2dVertex
 10
-1.95703
 20
0.354473
 30
0.0
 40
0.0
 41
0.0
  0
SEQEND
  5
B7
100
AcDbEntity
  8
0
  0
POLYLINE
  5
B8
100
AcDbEntity
  8
2
  6
CONTINUOUS
 62
     7
 48
0.125
100
AcDb2dPolyline
 66
     1
 10
0.0
 20
0.0
 30
0.0
 70
   128
  0
VERTEX
  5
B9
100
AcDbEntity
  8
2
  6
CONTINUOUS
 62
     7
 48
0.125
100
AcDbVertex
100
AcDb2dVertex
 10
-1.842758
 20
0.354473
 30
0.0
 40
0.0
 41
0.0
  0
VERTEX
  5
BA
100
AcDbEntity
  8
2
  6
CONTINUOUS
 62
     7
 48
0.125
100
AcDbVertex
100
AcDb2dVertex
 10
-1.689432
 20
0.354473
 30
0.0
 40
0.0
 41
0.0
  0
SEQEND
  5
BB
100
AcDbEntity
  8
0
  0
POLYLINE
  5
BC
100
AcDbEntity
  8
2
  6
CONTINUOUS
 62
     7
 48
0.125
100
AcDb2dPolyline
 66
     1
 10
0.0
 20
0.0
 30
0.0
 70
   128
  0
VERTEX
  5
BD
100
AcDbEntity
  8
2
  6
CONTINUOUS
 62
     7
 48
0.125
100
AcDbVertex
100
AcDb2dVertex
 10
-1.569324
 20
0.354473
 30
0.0
 40
0.0
 41
0.0
  0
VERTEX
  5
BE
100
AcDbEntity
  8
2
  6
CONTINUOUS
 62
     7
 48
0.125
100
AcDbVertex
100
AcDb2dVertex
 10
-1.37386
 20
0.354473
 30
0.0
 40
0.0
 41
0.0
  0
SEQEND
  5
BF
100
AcDbEntity
  8
0
  0
POLYLINE
  5
C0
100
AcDbEntity
  8
2
  6
CONTINUOUS
 62
     7
 48
0.125
100
AcDb2dPolyline
 66
     1
 10
0.0
 20
0.0
 30
0.0
 70
   128
  0
VERTEX
  5
C1
100
AcDbEntity
  8
2
  6
CONTINUOUS
 62
     7
 48
0.125
100
AcDbVertex
100
AcDb2dVertex
 10
-1.225908
 20
0.354473
 30
0.0
 40
0.0
 41
0.0
  0
VERTEX
  5
C2
100
AcDbEntity
  8
2
  6
CONTINUOUS
 62
     7
 48
0.125
100
AcDbVertex
100
AcDb2dVertex
 10
-1.137043
 20
0.354473
 30
0.0
 40
0.0
 41
0.0
  0
SEQEND
  5
C3
100
AcDbEntity
  8
0
  0
POLYLINE
  5
C4
100
AcDbEntity
  8
2
  6
CONTINUOUS
 62
     7
 48
0.125
100
AcDb2dPolyline
 66
     1
 10
0.0
 20
0.0
 30
0.0
 70
   128
  0
VERTEX
  5
C5
100
AcDbEntity
  8
2
  6
CONTINUOUS
 62
     7
 48
0.125
100
AcDbVertex
100
AcDb2dVertex
 10
-0.984145
 20
0.354473
 30
0.0
 40
0.0
 41
0.0
  0
VERTEX
  5
C6
100
AcDbEntity
  8
2
  6
CONTINUOUS
 62
     7
 48
0.125
100
AcDbVertex
100
AcDb2dVertex
 10
-0.75316
 20
0.354473
 30
0.0
 40
0.0
 41
0.0
  0
SEQEND
  5
C7
100
AcDbEntity
  8
0
  0
POLYLINE
  5
C8
100
AcDbEntity
  8
2
  6
CONTINUOUS
 62
     7
 48
0.125
100
AcDb2dPolyline
 66
     1
 10
0.0
 20
0.0
 30
0.0
 70
   128
  0
VERTEX
  5
C9
100
AcDbEntity
  8
2
  6
CONTINUOUS
 62
     7
 48
0.125
100
AcDbVertex
100
AcDb2dVertex
 10
-0.730662
 20
0.354473
 30
0.0
 40
0.0
 41
0.0
  0
VERTEX
  5
CA
100
AcDbEntity
  8
2
  6
CONTINUOUS
 62
     7
 48
0.125
100
AcDbVertex
100
AcDb2dVertex
 10
-0.639459
 20
0.354473
 30
0.0
 40
0.0
 41
0.0
  0
SEQEND
  5
CB
100
AcDbEntity
  8
0
  0
POLYLINE
  5
CC
100
AcDbEntity
  8
2
  6
CONTINUOUS
 62
     7
 48
0.125
100
AcDb2dPolyline
 66
     1
 10
0.0
 20
0.0
 30
0.0
 70
   128
  0
VERTEX
  5
CD
100
AcDbEntity
  8
2
  6
CONTINUOUS
 62
     7
 48
0.125
100
AcDbVertex
100
AcDb2dVertex
 10
-0.525951
 20
0.354473
 30
0.0
 40
0.0
 41
0.0
  0
VERTEX
  5
CE
100
AcDbEntity
  8
2
  6
CONTINUOUS
 62
     7
 48
0.125
100
AcDbVertex
100
AcDb2dVertex
 10
-0.434749
 20
0.354473
 30
0.0
 40
0.0
 41
0.0
  0
SEQEND
  5
CF
100
AcDbEntity
  8
0
  0
POLYLINE
  5
D0
100
AcDbEntity
  8
2
  6
CONTINUOUS
 62
     7
 48
0.125
100
AcDb2dPolyline
 66
     1
 10
0.0
 20
0.0
 30
0.0
 70
   128
  0
VERTEX
  5
D1
100
AcDbEntity
  8
2
  6
CONTINUOUS
 62
     7
 48
0.125
100
AcDbVertex
100
AcDb2dVertex
 10
-0.17724
 20
0.354473
 30
0.0
 40
0.0
 41
0.0
  0
VERTEX
  5
D2
100
AcDbEntity
  8
2
  6
CONTINUOUS
 62
     7
 48
0.125
100
AcDbVertex
100
AcDb2dVertex
 10
0.005686
 20
0.354473
 30
0.0
 40
0.0
 41
0.0
  0
SEQEND
  5
D3
100
AcDbEntity
  8
0
  0
POLYLINE
  5
D4
100
AcDbEntity
  8
2
  6
CONTINUOUS
 62
     7
 48
0.125
100
AcDb2dPolyline
 66
     1
 10
0.0
 20
0.0
 30
0.0
 70
   128
  0
VERTEX
  5
D5
100
AcDbEntity
  8
2
  6
CONTINUOUS
 62
     7
 48
0.125
100
AcDbVertex
100
AcDb2dVertex
 10
0.212071
 20
0.354473
 30
0.0
 40
0.0
 41
0.0
  0
VERTEX
  5
D6
100
AcDbEntity
  8
2
  6
CONTINUOUS
 62
     7
 48
0.125
100
AcDbVertex
100
AcDb2dVertex
 10
0.365397
 20
0.354473
 30
0.0
 40
0.0
 41
0.0
  0
SEQEND
  5
D7
100
AcDbEntity
  8
0
  0
POLYLINE
  5
D8
100
AcDbEntity
  8
2
  6
CONTINUOUS
 62
     7
 48
0.125
100
AcDb2dPolyline
 66
     1
 10
0.0
 20
0.0
 30
0.0
 70
   128
  0
VERTEX
  5
D9
100
AcDbEntity
  8
2
  6
CONTINUOUS
 62
     7
 48
0.125
100
AcDbVertex
100
AcDb2dVertex
 10
0.444216
 20
0.354473
 30
0.0
 40
0.0
 41
0.0
  0
VERTEX
  5
DA
100
AcDbEntity
  8
2
  6
CONTINUOUS
 62
     7
 48
0.125
100
AcDbVertex
100
AcDb2dVertex
 10
0.533749
 20
0.354473
 30
0.0
 40
0.0
 41
0.0
  0
SEQEND
  5
DB
100
AcDbEntity
  8
0
  0
POLYLINE
  5
DC
100
AcDbEntity
  8
2
  6
CONTINUOUS
 62
     7
 48
0.125
100
AcDb2dPolyline
 66
     1
 10
0.0
 20
0.0
 30
0.0
 70
   128
  0
VERTEX
  5
DD
100
AcDbEntity
  8
2
  6
CONTINUOUS
 62
     7
 48
0.125
100
AcDbVertex
100
AcDb2dVertex
 10
0.640534
 20
0.354473
 30
0.0
 40
0.0
 41
0.0
  0
VERTEX
  5
DE
100
AcDbEntity
  8
2
  6
CONTINUOUS
 62
     7
 48
0.125
100
AcDbVertex
100
AcDb2dVertex
 10
0.730066
 20
0.354473
 30
0.0
 40
0.0
 41
0.0
  0
SEQEND
  5
DF
100
AcDbEntity
  8
0
  0
POLYLINE
  5
E0
100
AcDbEntity
  8
2
  6
CONTINUOUS
 62
     7
 48
0.125
100
AcDb2dPolyline
 66
     1
 10
0.0
 20
0.0
 30
0.0
 70
   128
  0
VERTEX
  5
E1
100
AcDbEntity
  8
2
  6
CONTINUOUS
 62
     7
 48
0.125
100
AcDbVertex
100
AcDb2dVertex
 10
0.768018
 20
0.354473
 30
0.0
 40
0.0
 41
0.0
  0
VERTEX
  5
E2
100
AcDbEntity
  8
2
  6
CONTINUOUS
 62
     7
 48
0.125
100
AcDbVertex
100
AcDb2dVertex
 10
0.872996
 20
0.354473
 30
0.0
 40
0.0
 41
0.0
  0
SEQEND
  5
E3
100
AcDbEntity
  8
0
  0
POLYLINE
  5
E4
100
AcDbEntity
  8
2
  6
CONTINUOUS
 62
     7
 48
0.125
100
AcDb2dPolyline
 66
     1
 10
0.0
 20
0.0
 30
0.0
 70
   128
  0
VERTEX
  5
E5
100
AcDbEntity
  8
2
  6
CONTINUOUS
 62
     7
 48
0.125
100
AcDbVertex
100
AcDb2dVertex
 10
0.936862
 20
0.354473
 30
0.0
 40
0.0
 41
0.0
  0
VERTEX
  5
E6
100
AcDbEntity
  8
2
  6
CONTINUOUS
 62
     7
 48
0.125
100
AcDbVertex
100
AcDb2dVertex
 10
1.119788
 20
0.354473
 30
0.0
 40
0.0
 41
0.0
  0
SEQEND
  5
E7
100
AcDbEntity
  8
0
  0
POLYLINE
  5
E8
100
AcDbEntity
  8
2
  6
CONTINUOUS
 62
     7
 48
0.125
100
AcDb2dPolyline
 66
     1
 10
0.0
 20
0.0
 30
0.0
 70
   128
  0
VERTEX
  5
E9
100
AcDbEntity
  8
2
  6
CONTINUOUS
 62
     7
 48
0.125
100
AcDbVertex
100
AcDb2dVertex
 10
1.385047
 20
0.354473
 30
0.0
 40
0.0
 41
0.0
  0
VERTEX
  5
EA
100
AcDbEntity
  8
2
  6
CONTINUOUS
 62
     7
 48
0.125
100
AcDbVertex
100
AcDb2dVertex
 10
1.433903
 20
0.354473
 30
0.0
 40
0.0
 41
0.0
  0
SEQEND
  5
EB
100
AcDbEntity
  8
0
  0
POLYLINE
  5
EC
100
AcDbEntity
  8
2
  6
CONTINUOUS
 62
     7
 48
0.125
100
AcDb2dPolyline
 66
     1
 10
0.0
 20
0.0
 30
0.0
 70
   128
  0
VERTEX
  5
ED
100
AcDbEntity
  8
2
  6
CONTINUOUS
 62
     7
 48
0.125
100
AcDbVertex
100
AcDb2dVertex
 10
1.727522
 20
0.354473
 30
0.0
 40
0.0
 41
0.0
  0
VERTEX
  5
EE
100
AcDbEntity
  8
2
  6
CONTINUOUS
 62
     7
 48
0.125
100
AcDbVertex
100
AcDb2dVertex
 10
1.762956
 20
0.354473
 30
0.0
 40
0.0
 41
0.0
  0
SEQEND
  5
EF
100
AcDbEntity
  8
0
  0
POLYLINE
  5
F0
100
AcDbEntity
  8
2
  6
CONTINUOUS
 62
     7
 48
0.125
100
AcDb2dPolyline
 66
     1
 10
0.0
 20
0.0
 30
0.0
 70
   128
  0
VERTEX
  5
F1
100
AcDbEntity
  8
2
  6
CONTINUOUS
 62
     7
 48
0.125
100
AcDbVertex
100
AcDb2dVertex
 10
1.945413
 20
0.354473
 30
0.0
 40
0.0
 41
0.0
  0
VERTEX
  5
F2
100
AcDbEntity
  8
2
  6
CONTINUOUS
 62
     7
 48
0.125
100
AcDbVertex
100
AcDb2dVertex
 10
2.048355
 20
0.354473
 30
0.0
 40
0.0
 41
0.0
  0
SEQEND
  5
F3
100
AcDbEntity
  8
0
  0
POLYLINE
  5
F4
100
AcDbEntity
  8
2
  6
CONTINUOUS
 62
     7
 48
0.125
100
AcDb2dPolyline
 66
     1
 10
0.0
 20
0.0
 30
0.0
 70
   128
  0
VERTEX
  5
F5
100
AcDbEntity
  8
2
  6
CONTINUOUS
 62
     7
 48
0.125
100
AcDbVertex
100
AcDb2dVertex
 10
-2.045895
 20
-0.361063
 30
0.0
 40
0.0
 41
0.0
  0
VERTEX
  5
F6
100
AcDbEntity
  8
2
  6
CONTINUOUS
 62
     7
 48
0.125
100
AcDbVertex
100
AcDb2dVertex
 10
-2.045895
 20
-0.044688
 30
0.0
 40
0.0
 41
0.0
  0
SEQEND
  5
F7
100
AcDbEntity
  8
0
  0
POLYLINE
  5
F8
100
AcDbEntity
  8
2
  6
CONTINUOUS
 62
     7
 48
0.125
100
AcDb2dPolyline
 66
     1
 10
0.0
 20
0.0
 30
0.0
 70
   128
  0
VERTEX
  5
F9
100
AcDbEntity
  8
2
  6
CONTINUOUS
 62
     7
 48
0.125
100
AcDbVertex
100
AcDb2dVertex
 10
-2.14956
 20
-0.361063
 30
0.0
 40
0.0
 41
0.0
  0
VERTEX
  5
FA
100
AcDbEntity
  8
2
  6
CONTINUOUS
 62
     7
 48
0.125
100
AcDbVertex
100
AcDb2dVertex
 10
-2.14956
 20
-0.044688
 30
0.0
 40
0.0
 41
0.0
  0
SEQEND
  5
FB
100
AcDbEntity
  8
0
  0
POLYLINE
  5
FC
100
AcDbEntity
  8
2
  6
CONTINUOUS
 62
     7
 48
0.125
100
AcDb2dPolyline
 66
     1
 10
0.0
 20
0.0
 30
0.0
 70
   128
  0
VERTEX
  5
FD
100
AcDbEntity
  8
2
  6
CONTINUOUS
 62
     7
 48
0.125
100
AcDbVertex
100
AcDb2dVertex
 10
1.025741
 20
0.275317
 30
0.0
 40
0.0
 41
0.0
  0
VERTEX
  5
FE
100
AcDbEntity
  8
2
  6
CONTINUOUS
 62
     7
 48
0.125
100
AcDbVertex
100
AcDb2dVertex
 10
1.072519
 20
0.275317
 30
0.0
 40
0.0
 41
0.0
  0
SEQEND
  5
FF
100
AcDbEntity
  8
0
  0
POLYLINE
  5
100
100
AcDbEntity
  8
2
  6
CONTINUOUS
 62
     7
 48
0.125
100
AcDb2dPolyline
 66
     1
 10
0.0
 20
0.0
 30
0.0
 70
   128
  0
VERTEX
  5
101
100
AcDbEntity
  8
2
  6
CONTINUOUS
 62
     7
 48
0.125
100
AcDbVertex
100
AcDb2dVertex
 10
1.025741
 20
-0.262489
 30
0.0
 40
0.0
 41
0.0
  0
VERTEX
  5
102
100
AcDbEntity
  8
2
  6
CONTINUOUS
 62
     7
 48
0.125
100
AcDbVertex
100
AcDb2dVertex
 10
1.072519
 20
-0.262489
 30
0.0
 40
0.0
 41
0.0
  0
SEQEND
  5
103
100
AcDbEntity
  8
0
  0
POLYLINE
  5
104
100
AcDbEntity
  8
2
  6
CONTINUOUS
 62
     7
 48
0.125
100
AcDb2dPolyline
 66
     1
 10
0.0
 20
0.0
 30
0.0
 70
   128
  0
VERTEX
  5
105
100
AcDbEntity
  8
2
  6
CONTINUOUS
 62
     7
 48
0.125
100
AcDbVertex
100
AcDb2dVertex
 10
1.462965
 20
-0.224944
 30
0.0
 40
0.0
 41
0.0
  0
VERTEX
  5
106
100
AcDbEntity
  8
2
  6
CONTINUOUS
 62
     7
 48
0.125
100
AcDbVertex
100
AcDb2dVertex
 10
1.462965
 20
-0.147387
 30
0.0
 40
0.0
 41
0.0
  0
SEQEND
  5
107
100
AcDbEntity
  8
0
  0
POLYLINE
  5
108
100
AcDbEntity
  8
2
  6
CONTINUOUS
 62
     7
 48
0.125
100
AcDb2dPolyline
 66
     1
 10
0.0
 20
0.0
 30
0.0
 70
   128
  0
VERTEX
  5
109
100
AcDbEntity
  8
2
  6
CONTINUOUS
 62
     7
 48
0.125
100
AcDbVertex
100
AcDb2dVertex
 10
1.552075
 20
-0.242891
 30
0.0
 40
0.0
 41
0.0
  0
VERTEX
  5
10A
100
AcDbEntity
  8
2
  6
CONTINUOUS
 62
     7
 48
0.125
100
AcDbVertex
100
AcDb2dVertex
 10
1.552075
 20
-0.138647
 30
0.0
 40
0.0
 41
0.0
  0
SEQEND
  5
10B
100
AcDbEntity
  8
0
  0
POLYLINE
  5
10C
100
AcDbEntity
  8
2
  6
CONTINUOUS
 62
     7
 48
0.125
100
AcDb2dPolyline
 66
     1
 10
0.0
 20
0.0
 30
0.0
 70
   128
  0
VERTEX
  5
10D
100
AcDbEntity
  8
2
  6
CONTINUOUS
 62
     7
 48
0.125
100
AcDbVertex
100
AcDb2dVertex
 10
1.355484
 20
-0.224944
 30
0.0
 40
0.0
 41
0.0
  0
VERTEX
  5
10E
100
AcDbEntity
  8
2
  6
CONTINUOUS
 62
     7
 48
0.125
100
AcDbVertex
100
AcDb2dVertex
 10
1.355484
 20
-0.111622
 30
0.0
 40
0.0
 41
0.0
  0
SEQEND
  5
10F
100
AcDbEntity
  8
0
  0
POLYLINE
  5
110
100
AcDbEntity
  8
2
  6
CONTINUOUS
 62
     7
 48
0.125
100
AcDb2dPolyline
 66
     1
 10
0.0
 20
0.0
 30
0.0
 70
   128
  0
VERTEX
  5
111
100
AcDbEntity
  8
2
  6
CONTINUOUS
 62
     7
 48
0.125
100
AcDbVertex
100
AcDb2dVertex
 10
1.266876
 20
-0.242891
 30
0.0
 40
0.0
 41
0.0
  0
VERTEX
  5
112
100
AcDbEntity
  8
2
  6
CONTINUOUS
 62
     7
 48
0.125
100
AcDbVertex
100
AcDb2dVertex
 10
1.266876
 20
-0.111622
 30
0.0
 40
0.0
 41
0.0
  0
SEQEND
  5
113
100
AcDbEntity
  8
0
  0
POLYLINE
  5
114
100
AcDbEntity
  8
2
  6
CONTINUOUS
 62
     7
 48
0.125
100
AcDb2dPolyline
 66
     1
 10
0.0
 20
0.0
 30
0.0
 70
   128
  0
VERTEX
  5
115
100
AcDbEntity
  8
2
  6
CONTINUOUS
 62
     7
 48
0.125
100
AcDbVertex
100
AcDb2dVertex
 10
-1.137043
 20
-0.272213
 30
0.0
 40
0.0
 41
0.0
  0
VERTEX
  5
116
100
AcDbEntity
  8
2
  6
CONTINUOUS
 62
     7
 48
0.125
100
AcDbVertex
100
AcDb2dVertex
 10
-1.012507
 20
-0.272213
 30
0.0
 40
0.0
 41
0.0
  0
SEQEND
  5
117
100
AcDbEntity
  8
0
  0
POLYLINE
  5
118
100
AcDbEntity
  8
2
  6
CONTINUOUS
 62
     7
 48
0.125
100
AcDb2dPolyline
 66
     1
 10
0.0
 20
0.0
 30
0.0
 70
   128
  0
VERTEX
  5
119
100
AcDbEntity
  8
2
  6
CONTINUOUS
 62
     7
 48
0.125
100
AcDbVertex
100
AcDb2dVertex
 10
-0.895276
 20
-0.272213
 30
0.0
 40
0.0
 41
0.0
  0
VERTEX
  5
11A
100
AcDbEntity
  8
2
  6
CONTINUOUS
 62
     7
 48
0.125
100
AcDbVertex
100
AcDb2dVertex
 10
-0.75316
 20
-0.272213
 30
0.0
 40
0.0
 41
0.0
  0
SEQEND
  5
11B
100
AcDbEntity
  8
0
  0
POLYLINE
  5
11C
100
AcDbEntity
  8
2
  6
CONTINUOUS
 62
     7
 48
0.125
100
AcDb2dPolyline
 66
     1
 10
0.0
 20
0.0
 30
0.0
 70
   128
  0
VERTEX
  5
11D
100
AcDbEntity
  8
2
  6
CONTINUOUS
 62
     7
 48
0.125
100
AcDbVertex
100
AcDb2dVertex
 10
-0.088377
 20
-0.271701
 30
0.0
 40
0.0
 41
0.0
  0
VERTEX
  5
11E
100
AcDbEntity
  8
2
  6
CONTINUOUS
 62
     7
 48
0.125
100
AcDbVertex
100
AcDb2dVertex
 10
-0.041092
 20
-0.271701
 30
0.0
 40
0.0
 41
0.0
  0
SEQEND
  5
11F
100
AcDbEntity
  8
0
  0
POLYLINE
  5
120
100
AcDbEntity
  8
2
  6
CONTINUOUS
 62
     7
 48
0.125
100
AcDb2dPolyline
 66
     1
 10
0.0
 20
0.0
 30
0.0
 70
   128
  0
VERTEX
  5
121
100
AcDbEntity
  8
2
  6
CONTINUOUS
 62
     7
 48
0.125
100
AcDbVertex
100
AcDb2dVertex
 10
0.213754
 20
-0.361063
 30
0.0
 40
0.0
 41
0.0
  0
VERTEX
  5
122
100
AcDbEntity
  8
2
  6
CONTINUOUS
 62
     7
 48
0.125
100
AcDbVertex
100
AcDb2dVertex
 10
0.236575
 20
-0.175166
 30
0.0
 40
0.0
 41
0.0
  0
SEQEND
  5
123
100
AcDbEntity
  8
0
  0
POLYLINE
  5
124
100
AcDbEntity
  8
2
  6
CONTINUOUS
 62
     7
 48
0.125
100
AcDb2dPolyline
 66
     1
 10
0.0
 20
0.0
 30
0.0
 70
   128
  0
VERTEX
  5
125
100
AcDbEntity
  8
2
  6
CONTINUOUS
 62
     7
 48
0.125
100
AcDbVertex
100
AcDb2dVertex
 10
0.295801
 20
0.192129
 30
0.0
 40
0.0
 41
0.0
  0
VERTEX
  5
126
100
AcDbEntity
  8
2
  6
CONTINUOUS
 62
     7
 48
0.125
100
AcDbVertex
100
AcDb2dVertex
 10
0.327448
 20
-0.065611
 30
0.0
 40
0.0
 41
0.0
  0
SEQEND
  5
127
100
AcDbEntity
  8
0
  0
POLYLINE
  5
128
100
AcDbEntity
  8
2
  6
CONTINUOUS
 62
     7
 48
0.125
100
AcDb2dPolyline
 66
     1
 10
0.0
 20
0.0
 30
0.0
 70
   128
  0
VERTEX
  5
129
100
AcDbEntity
  8
2
  6
CONTINUOUS
 62
     7
 48
0.125
100
AcDbVertex
100
AcDb2dVertex
 10
-1.818257
 20
-0.175166
 30
0.0
 40
0.0
 41
0.0
  0
VERTEX
  5
12A
100
AcDbEntity
  8
2
  6
CONTINUOUS
 62
     7
 48
0.125
100
AcDbVertex
100
AcDb2dVertex
 10
-1.713933
 20
-0.175166
 30
0.0
 40
0.0
 41
0.0
  0
SEQEND
  5
12B
100
AcDbEntity
  8
0
  0
POLYLINE
  5
12C
100
AcDbEntity
  8
2
  6
CONTINUOUS
 62
     7
 48
0.125
100
AcDb2dPolyline
 66
     1
 10
0.0
 20
0.0
 30
0.0
 70
   128
  0
VERTEX
  5
12D
100
AcDbEntity
  8
2
  6
CONTINUOUS
 62
     7
 48
0.125
100
AcDbVertex
100
AcDb2dVertex
 10
-1.480459
 20
0.265608
 30
0.0
 40
0.0
 41
0.0
  0
VERTEX
  5
12E
100
AcDbEntity
  8
2
  6
CONTINUOUS
 62
     7
 48
0.125
100
AcDbVertex
100
AcDb2dVertex
 10
-1.432945
 20
0.265608
 30
0.0
 40
0.0
 41
0.0
  0
SEQEND
  5
12F
100
AcDbEntity
  8
0
  0
POLYLINE
  5
130
100
AcDbEntity
  8
2
  6
CONTINUOUS
 62
     7
 48
0.125
100
AcDb2dPolyline
 66
     1
 10
0.0
 20
0.0
 30
0.0
 70
   128
  0
VERTEX
  5
131
100
AcDbEntity
  8
2
  6
CONTINUOUS
 62
     7
 48
0.125
100
AcDbVertex
100
AcDb2dVertex
 10
-0.89528
 20
0.265608
 30
0.0
 40
0.0
 41
0.0
  0
VERTEX
  5
132
100
AcDbEntity
  8
2
  6
CONTINUOUS
 62
     7
 48
0.125
100
AcDbVertex
100
AcDb2dVertex
 10
-0.75316
 20
0.265608
 30
0.0
 40
0.0
 41
0.0
  0
SEQEND
  5
133
100
AcDbEntity
  8
0
  0
POLYLINE
  5
134
100
AcDbEntity
  8
2
  6
CONTINUOUS
 62
     7
 48
0.125
100
AcDb2dPolyline
 66
     1
 10
0.0
 20
0.0
 30
0.0
 70
   128
  0
VERTEX
  5
135
100
AcDbEntity
  8
2
  6
CONTINUOUS
 62
     7
 48
0.125
100
AcDbVertex
100
AcDb2dVertex
 10
-0.75316
 20
-0.361063
 30
0.0
 40
0.0
 41
0.0
  0
VERTEX
  5
136
100
AcDbEntity
  8
2
  6
CONTINUOUS
 62
     7
 48
0.125
100
AcDbVertex
100
AcDb2dVertex
 10
-0.75316
 20
-0.272213
 30
0.0
 40
0.0
 41
0.0
  0
SEQEND
  5
137
100
AcDbEntity
  8
0
  0
POLYLINE
  5
138
100
AcDbEntity
  8
2
  6
CONTINUOUS
 62
     7
 48
0.125
100
AcDb2dPolyline
 66
     1
 10
0.0
 20
0.0
 30
0.0
 70
   128
  0
VERTEX
  5
139
100
AcDbEntity
  8
2
  6
CONTINUOUS
 62
     7
 48
0.125
100
AcDbVertex
100
AcDb2dVertex
 10
-0.75316
 20
-0.030182
 30
0.0
 40
0.0
 41
0.0
  0
VERTEX
  5
13A
100
AcDbEntity
  8
2
  6
CONTINUOUS
 62
     7
 48
0.125
100
AcDbVertex
100
AcDb2dVertex
 10
-0.75316
 20
0.070861
 30
0.0
 40
0.0
 41
0.0
  0
SEQEND
  5
13B
100
AcDbEntity
  8
0
  0
POLYLINE
  5
13C
100
AcDbEntity
  8
2
  6
CONTINUOUS
 62
     7
 48
0.125
100
AcDb2dPolyline
 66
     1
 10
0.0
 20
0.0
 30
0.0
 70
   128
  0
VERTEX
  5
13D
100
AcDbEntity
  8
2
  6
CONTINUOUS
 62
     7
 48
0.125
100
AcDbVertex
100
AcDb2dVertex
 10
-0.895276
 20
-0.272213
 30
0.0
 40
0.0
 41
0.0
  0
VERTEX
  5
13E
100
AcDbEntity
  8
2
  6
CONTINUOUS
 62
     7
 48
0.125
100
AcDbVertex
100
AcDb2dVertex
 10
-0.895276
 20
-0.030182
 30
0.0
 40
0.0
 41
0.0
  0
SEQEND
  5
13F
100
AcDbEntity
  8
0
  0
POLYLINE
  5
140
100
AcDbEntity
  8
2
  6
CONTINUOUS
 62
     7
 48
0.125
100
AcDb2dPolyline
 66
     1
 10
0.0
 20
0.0
 30
0.0
 70
   128
  0
VERTEX
  5
141
100
AcDbEntity
  8
2
  6
CONTINUOUS
 62
     7
 48
0.125
100
AcDbVertex
100
AcDb2dVertex
 10
-1.480459
 20
-0.361063
 30
0.0
 40
0.0
 41
0.0
  0
VERTEX
  5
142
100
AcDbEntity
  8
2
  6
CONTINUOUS
 62
     7
 48
0.125
100
AcDbVertex
100
AcDb2dVertex
 10
-1.480459
 20
-0.082283
 30
0.0
 40
0.0
 41
0.0
  0
SEQEND
  5
143
100
AcDbEntity
  8
0
  0
POLYLINE
  5
144
100
AcDbEntity
  8
2
  6
CONTINUOUS
 62
     7
 48
0.125
100
AcDb2dPolyline
 66
     1
 10
0.0
 20
0.0
 30
0.0
 70
   128
  0
VERTEX
  5
145
100
AcDbEntity
  8
2
  6
CONTINUOUS
 62
     7
 48
0.125
100
AcDbVertex
100
AcDb2dVertex
 10
-1.37386
 20
-0.361063
 30
0.0
 40
0.0
 41
0.0
  0
VERTEX
  5
146
100
AcDbEntity
  8
2
  6
CONTINUOUS
 62
     7
 48
0.125
100
AcDbVertex
100
AcDb2dVertex
 10
-1.37386
 20
-0.171148
 30
0.0
 40
0.0
 41
0.0
  0
SEQEND
  5
147
100
AcDbEntity
  8
0
  0
POLYLINE
  5
148
100
AcDbEntity
  8
2
  6
CONTINUOUS
 62
     7
 48
0.125
100
AcDb2dPolyline
 66
     1
 10
0.0
 20
0.0
 30
0.0
 70
   128
  0
VERTEX
  5
149
100
AcDbEntity
  8
2
  6
CONTINUOUS
 62
     7
 48
0.125
100
AcDbVertex
100
AcDb2dVertex
 10
-1.284994
 20
-0.361063
 30
0.0
 40
0.0
 41
0.0
  0
VERTEX
  5
14A
100
AcDbEntity
  8
2
  6
CONTINUOUS
 62
     7
 48
0.125
100
AcDbVertex
100
AcDb2dVertex
 10
-1.284994
 20
-0.110644
 30
0.0
 40
0.0
 41
0.0
  0
SEQEND
  5
14B
100
AcDbEntity
  8
0
  0
POLYLINE
  5
14C
100
AcDbEntity
  8
2
  6
CONTINUOUS
 62
     7
 48
0.125
100
AcDb2dPolyline
 66
     1
 10
0.0
 20
0.0
 30
0.0
 70
   128
  0
VERTEX
  5
14D
100
AcDbEntity
  8
2
  6
CONTINUOUS
 62
     7
 48
0.125
100
AcDbVertex
100
AcDb2dVertex
 10
-1.759028
 20
0.192099
 30
0.0
 40
0.0
 41
0.0
  0
VERTEX
  5
14E
100
AcDbEntity
  8
2
  6
CONTINUOUS
 62
     7
 48
0.125
100
AcDbVertex
100
AcDb2dVertex
 10
-1.727381
 20
-0.065641
 30
0.0
 40
0.0
 41
0.0
  0
SEQEND
  5
14F
100
AcDbEntity
  8
0
  0
POLYLINE
  5
150
100
AcDbEntity
  8
2
  6
CONTINUOUS
 62
     7
 48
0.125
100
AcDb2dPolyline
 66
     1
 10
0.0
 20
0.0
 30
0.0
 70
   128
  0
VERTEX
  5
151
100
AcDbEntity
  8
2
  6
CONTINUOUS
 62
     7
 48
0.125
100
AcDbVertex
100
AcDb2dVertex
 10
-1.841082
 20
-0.361063
 30
0.0
 40
0.0
 41
0.0
  0
VERTEX
  5
152
100
AcDbEntity
  8
2
  6
CONTINUOUS
 62
     7
 48
0.125
100
AcDbVertex
100
AcDb2dVertex
 10
-1.818257
 20
-0.175166
 30
0.0
 40
0.0
 41
0.0
  0
SEQEND
  5
153
100
AcDbEntity
  8
0
  0
POLYLINE
  5
154
100
AcDbEntity
  8
2
  6
CONTINUOUS
 62
     7
 48
0.125
100
AcDb2dPolyline
 66
     1
 10
0.0
 20
0.0
 30
0.0
 70
   128
  0
VERTEX
  5
155
100
AcDbEntity
  8
2
  6
CONTINUOUS
 62
     7
 48
0.125
100
AcDbVertex
100
AcDb2dVertex
 10
-2.14956
 20
0.044261
 30
0.0
 40
0.0
 41
0.0
  0
VERTEX
  5
156
100
AcDbEntity
  8
2
  6
CONTINUOUS
 62
     7
 48
0.125
100
AcDbVertex
100
AcDb2dVertex
 10
-2.045895
 20
0.044261
 30
0.0
 40
0.0
 41
0.0
  0
SEQEND
  5
157
100
AcDbEntity
  8
0
  0
POLYLINE
  5
158
100
AcDbEntity
  8
2
  6
CONTINUOUS
 62
     7
 48
0.125
100
AcDb2dPolyline
 66
     1
 10
0.0
 20
0.0
 30
0.0
 70
   128
  0
VERTEX
  5
159
100
AcDbEntity
  8
2
  6
CONTINUOUS
 62
     7
 48
0.125
100
AcDbVertex
100
AcDb2dVertex
 10
-2.045895
 20
0.354473
 30
0.0
 40
0.0
 41
0.0
  0
VERTEX
  5
15A
100
AcDbEntity
  8
2
  6
CONTINUOUS
 62
     7
 48
0.125
100
AcDbVertex
100
AcDb2dVertex
 10
-2.045895
 20
0.044261
 30
0.0
 40
0.0
 41
0.0
  0
SEQEND
  5
15B
100
AcDbEntity
  8
0
  0
POLYLINE
  5
15C
100
AcDbEntity
  8
2
  6
CONTINUOUS
 62
     7
 48
0.125
100
AcDb2dPolyline
 66
     1
 10
0.0
 20
0.0
 30
0.0
 70
   128
  0
VERTEX
  5
15D
100
AcDbEntity
  8
2
  6
CONTINUOUS
 62
     7
 48
0.125
100
AcDbVertex
100
AcDb2dVertex
 10
-2.14956
 20
0.354473
 30
0.0
 40
0.0
 41
0.0
  0
VERTEX
  5
15E
100
AcDbEntity
  8
2
  6
CONTINUOUS
 62
     7
 48
0.125
100
AcDbVertex
100
AcDb2dVertex
 10
-2.14956
 20
0.044261
 30
0.0
 40
0.0
 41
0.0
  0
SEQEND
  5
15F
100
AcDbEntity
  8
0
  0
POLYLINE
  5
160
100
AcDbEntity
  8
2
  6
CONTINUOUS
 62
     7
 48
0.125
100
AcDb2dPolyline
 66
     1
 10
0.0
 20
0.0
 30
0.0
 70
   128
  0
VERTEX
  5
161
100
AcDbEntity
  8
2
  6
CONTINUOUS
 62
     7
 48
0.125
100
AcDbVertex
100
AcDb2dVertex
 10
-2.14956
 20
-0.044688
 30
0.0
 40
0.0
 41
0.0
  0
VERTEX
  5
162
100
AcDbEntity
  8
2
  6
CONTINUOUS
 62
     7
 48
0.125
100
AcDbVertex
100
AcDb2dVertex
 10
-2.045895
 20
-0.044688
 30
0.0
 40
0.0
 41
0.0
  0
SEQEND
  5
163
100
AcDbEntity
  8
0
  0
POLYLINE
  5
164
100
AcDbEntity
  8
2
  6
CONTINUOUS
 62
     7
 48
0.125
100
AcDb2dPolyline
 66
     1
 10
0.0
 20
0.0
 30
0.0
 70
   128
  0
VERTEX
  5
165
100
AcDbEntity
  8
2
  6
CONTINUOUS
 62
     7
 48
0.125
100
AcDbVertex
100
AcDb2dVertex
 10
1.792274
 20
0.231357
 30
0.0
 40
0.0
 41
0.0
  0
VERTEX
  5
166
100
AcDbEntity
  8
2
  6
CONTINUOUS
 62
     7
 48
0.125
100
AcDbVertex
100
AcDb2dVertex
 10
1.792274
 20
-0.21853
 30
0.0
 40
0.0
 41
0.0
  0
SEQEND
  5
167
100
AcDbEntity
  8
0
  0
POLYLINE
  5
168
100
AcDbEntity
  8
2
  6
CONTINUOUS
 62
     7
 48
0.125
100
AcDb2dPolyline
 66
     1
 10
0.0
 20
0.0
 30
0.0
 70
   128
  0
VERTEX
  5
169
100
AcDbEntity
  8
2
  6
CONTINUOUS
 62
     7
 48
0.125
100
AcDbVertex
100
AcDb2dVertex
 10
1.748314
 20
0.275317
 30
0.0
 40
0.0
 41
0.0
  0
VERTEX
  5
16A
100
AcDbEntity
  8
2
  6
CONTINUOUS
 62
     7
 48
0.125
100
AcDbVertex
100
AcDb2dVertex
 10
1.742175
 20
0.275317
 30
0.0
 40
0.0
 41
0.0
  0
SEQEND
  5
16B
100
AcDbEntity
  8
0
  0
POLYLINE
  5
16C
100
AcDbEntity
  8
2
  6
CONTINUOUS
 62
     7
 48
0.125
100
AcDb2dPolyline
 66
     1
 10
0.0
 20
0.0
 30
0.0
 70
   128
  0
VERTEX
  5
16D
100
AcDbEntity
  8
2
  6
CONTINUOUS
 62
     7
 48
0.125
100
AcDbVertex
100
AcDb2dVertex
 10
1.698215
 20
0.231357
 30
0.0
 40
0.0
 41
0.0
  0
VERTEX
  5
16E
100
AcDbEntity
  8
2
  6
CONTINUOUS
 62
     7
 48
0.125
100
AcDbVertex
100
AcDb2dVertex
 10
1.698215
 20
-0.21853
 30
0.0
 40
0.0
 41
0.0
  0
SEQEND
  5
16F
100
AcDbEntity
  8
0
  0
POLYLINE
  5
170
100
AcDbEntity
  8
2
  6
CONTINUOUS
 62
     7
 48
0.125
100
AcDb2dPolyline
 66
     1
 10
0.0
 20
0.0
 30
0.0
 70
   128
  0
VERTEX
  5
171
100
AcDbEntity
  8
2
  6
CONTINUOUS
 62
     7
 48
0.125
100
AcDbVertex
100
AcDb2dVertex
 10
1.748314
 20
-0.262489
 30
0.0
 40
0.0
 41
0.0
  0
VERTEX
  5
172
100
AcDbEntity
  8
2
  6
CONTINUOUS
 62
     7
 48
0.125
100
AcDbVertex
100
AcDb2dVertex
 10
1.742175
 20
-0.262489
 30
0.0
 40
0.0
 41
0.0
  0
SEQEND
  5
173
100
AcDbEntity
  8
0
  0
POLYLINE
  5
174
100
AcDbEntity
  8
2
  6
CONTINUOUS
 62
     7
 48
0.125
100
AcDb2dPolyline
 66
     1
 10
0.0
 20
0.0
 30
0.0
 70
   128
  0
VERTEX
  5
175
100
AcDbEntity
  8
2
  6
CONTINUOUS
 62
     7
 48
0.125
100
AcDbVertex
100
AcDb2dVertex
 10
1.881128
 20
0.236302
 30
0.0
 40
0.0
 41
0.0
  0
VERTEX
  5
176
100
AcDbEntity
  8
2
  6
CONTINUOUS
 62
     7
 48
0.125
100
AcDbVertex
100
AcDb2dVertex
 10
1.881128
 20
-0.242891
 30
0.0
 40
0.0
 41
0.0
  0
SEQEND
  5
177
100
AcDbEntity
  8
0
  0
POLYLINE
  5
178
100
AcDbEntity
  8
2
  6
CONTINUOUS
 62
     7
 48
0.125
100
AcDb2dPolyline
 66
     1
 10
0.0
 20
0.0
 30
0.0
 70
   128
  0
VERTEX
  5
179
100
AcDbEntity
  8
2
  6
CONTINUOUS
 62
     7
 48
0.125
100
AcDbVertex
100
AcDb2dVertex
 10
1.60935
 20
0.236302
 30
0.0
 40
0.0
 41
0.0
  0
VERTEX
  5
17A
100
AcDbEntity
  8
2
  6
CONTINUOUS
 62
     7
 48
0.125
100
AcDbVertex
100
AcDb2dVertex
 10
1.60935
 20
-0.242891
 30
0.0
 40
0.0
 41
0.0
  0
SEQEND
  5
17B
100
AcDbEntity
  8
0
  0
POLYLINE
  5
17C
100
AcDbEntity
  8
2
  6
CONTINUOUS
 62
     7
 48
0.125
100
AcDb2dPolyline
 66
     1
 10
0.0
 20
0.0
 30
0.0
 70
   128
  0
VERTEX
  5
17D
100
AcDbEntity
  8
2
  6
CONTINUOUS
 62
     7
 48
0.125
100
AcDbVertex
100
AcDb2dVertex
 10
1.462965
 20
0.105586
 30
0.0
 40
0.0
 41
0.0
  0
VERTEX
  5
17E
100
AcDbEntity
  8
2
  6
CONTINUOUS
 62
     7
 48
0.125
100
AcDbVertex
100
AcDb2dVertex
 10
1.552075
 20
0.105586
 30
0.0
 40
0.0
 41
0.0
  0
SEQEND
  5
17F
100
AcDbEntity
  8
0
  0
POLYLINE
  5
180
100
AcDbEntity
  8
2
  6
CONTINUOUS
 62
     7
 48
0.125
100
AcDb2dPolyline
 66
     1
 10
0.0
 20
0.0
 30
0.0
 70
   128
  0
VERTEX
  5
181
100
AcDbEntity
  8
2
  6
CONTINUOUS
 62
     7
 48
0.125
100
AcDbVertex
100
AcDb2dVertex
 10
1.462965
 20
0.218908
 30
0.0
 40
0.0
 41
0.0
  0
VERTEX
  5
182
100
AcDbEntity
  8
2
  6
CONTINUOUS
 62
     7
 48
0.125
100
AcDbVertex
100
AcDb2dVertex
 10
1.462965
 20
0.105586
 30
0.0
 40
0.0
 41
0.0
  0
SEQEND
  5
183
100
AcDbEntity
  8
0
  0
POLYLINE
  5
184
100
AcDbEntity
  8
2
  6
CONTINUOUS
 62
     7
 48
0.125
100
AcDb2dPolyline
 66
     1
 10
0.0
 20
0.0
 30
0.0
 70
   128
  0
VERTEX
  5
185
100
AcDbEntity
  8
2
  6
CONTINUOUS
 62
     7
 48
0.125
100
AcDbVertex
100
AcDb2dVertex
 10
1.552075
 20
0.236302
 30
0.0
 40
0.0
 41
0.0
  0
VERTEX
  5
186
100
AcDbEntity
  8
2
  6
CONTINUOUS
 62
     7
 48
0.125
100
AcDbVertex
100
AcDb2dVertex
 10
1.552075
 20
0.105586
 30
0.0
 40
0.0
 41
0.0
  0
SEQEND
  5
187
100
AcDbEntity
  8
0
  0
POLYLINE
  5
188
100
AcDbEntity
  8
2
  6
CONTINUOUS
 62
     7
 48
0.125
100
AcDb2dPolyline
 66
     1
 10
0.0
 20
0.0
 30
0.0
 70
   128
  0
VERTEX
  5
189
100
AcDbEntity
  8
2
  6
CONTINUOUS
 62
     7
 48
0.125
100
AcDbVertex
100
AcDb2dVertex
 10
1.402752
 20
0.266177
 30
0.0
 40
0.0
 41
0.0
  0
VERTEX
  5
18A
100
AcDbEntity
  8
2
  6
CONTINUOUS
 62
     7
 48
0.125
100
AcDbVertex
100
AcDb2dVertex
 10
1.415696
 20
0.266177
 30
0.0
 40
0.0
 41
0.0
  0
SEQEND
  5
18B
100
AcDbEntity
  8
0
  0
POLYLINE
  5
18C
100
AcDbEntity
  8
2
  6
CONTINUOUS
 62
     7
 48
0.125
100
AcDb2dPolyline
 66
     1
 10
0.0
 20
0.0
 30
0.0
 70
   128
  0
VERTEX
  5
18D
100
AcDbEntity
  8
2
  6
CONTINUOUS
 62
     7
 48
0.125
100
AcDbVertex
100
AcDb2dVertex
 10
1.355484
 20
0.092198
 30
0.0
 40
0.0
 41
0.0
  0
VERTEX
  5
18E
100
AcDbEntity
  8
2
  6
CONTINUOUS
 62
     7
 48
0.125
100
AcDbVertex
100
AcDb2dVertex
 10
1.355484
 20
0.218908
 30
0.0
 40
0.0
 41
0.0
  0
SEQEND
  5
18F
100
AcDbEntity
  8
0
  0
POLYLINE
  5
190
100
AcDbEntity
  8
2
  6
CONTINUOUS
 62
     7
 48
0.125
100
AcDb2dPolyline
 66
     1
 10
0.0
 20
0.0
 30
0.0
 70
   128
  0
VERTEX
  5
191
100
AcDbEntity
  8
2
  6
CONTINUOUS
 62
     7
 48
0.125
100
AcDbVertex
100
AcDb2dVertex
 10
1.266876
 20
0.083078
 30
0.0
 40
0.0
 41
0.0
  0
VERTEX
  5
192
100
AcDbEntity
  8
2
  6
CONTINUOUS
 62
     7
 48
0.125
100
AcDbVertex
100
AcDb2dVertex
 10
1.266876
 20
0.236302
 30
0.0
 40
0.0
 41
0.0
  0
SEQEND
  5
193
100
AcDbEntity
  8
0
  0
POLYLINE
  5
194
100
AcDbEntity
  8
2
  6
CONTINUOUS
 62
     7
 48
0.125
100
AcDb2dPolyline
 66
     1
 10
0.0
 20
0.0
 30
0.0
 70
   128
  0
VERTEX
  5
195
100
AcDbEntity
  8
2
  6
CONTINUOUS
 62
     7
 48
0.125
100
AcDbVertex
100
AcDb2dVertex
 10
1.374265
 20
0.054477
 30
0.0
 40
0.0
 41
0.0
  0
VERTEX
  5
196
100
AcDbEntity
  8
2
  6
CONTINUOUS
 62
     7
 48
0.125
100
AcDbVertex
100
AcDb2dVertex
 10
1.50512
 20
-0.044345
 30
0.0
 40
0.0
 41
0.0
  0
SEQEND
  5
197
100
AcDbEntity
  8
0
  0
POLYLINE
  5
198
100
AcDbEntity
  8
2
  6
CONTINUOUS
 62
     7
 48
0.125
100
AcDb2dPolyline
 66
     1
 10
0.0
 20
0.0
 30
0.0
 70
   128
  0
VERTEX
  5
199
100
AcDbEntity
  8
2
  6
CONTINUOUS
 62
     7
 48
0.125
100
AcDbVertex
100
AcDb2dVertex
 10
1.31383
 20
-0.011223
 30
0.0
 40
0.0
 41
0.0
  0
VERTEX
  5
19A
100
AcDbEntity
  8
2
  6
CONTINUOUS
 62
     7
 48
0.125
100
AcDbVertex
100
AcDb2dVertex
 10
1.444183
 20
-0.109667
 30
0.0
 40
0.0
 41
0.0
  0
SEQEND
  5
19B
100
AcDbEntity
  8
0
  0
POLYLINE
  5
19C
100
AcDbEntity
  8
2
  6
CONTINUOUS
 62
     7
 48
0.125
100
AcDb2dPolyline
 66
     1
 10
0.0
 20
0.0
 30
0.0
 70
   128
  0
VERTEX
  5
19D
100
AcDbEntity
  8
2
  6
CONTINUOUS
 62
     7
 48
0.125
100
AcDbVertex
100
AcDb2dVertex
 10
1.266876
 20
-0.111622
 30
0.0
 40
0.0
 41
0.0
  0
VERTEX
  5
19E
100
AcDbEntity
  8
2
  6
CONTINUOUS
 62
     7
 48
0.125
100
AcDbVertex
100
AcDb2dVertex
 10
1.355484
 20
-0.111622
 30
0.0
 40
0.0
 41
0.0
  0
SEQEND
  5
19F
100
AcDbEntity
  8
0
  0
POLYLINE
  5
1A0
100
AcDbEntity
  8
2
  6
CONTINUOUS
 62
     7
 48
0.125
100
AcDb2dPolyline
 66
     1
 10
0.0
 20
0.0
 30
0.0
 70
   128
  0
VERTEX
  5
1A1
100
AcDbEntity
  8
2
  6
CONTINUOUS
 62
     7
 48
0.125
100
AcDbVertex
100
AcDb2dVertex
 10
1.402752
 20
-0.272213
 30
0.0
 40
0.0
 41
0.0
  0
VERTEX
  5
1A2
100
AcDbEntity
  8
2
  6
CONTINUOUS
 62
     7
 48
0.125
100
AcDbVertex
100
AcDb2dVertex
 10
1.415696
 20
-0.272213
 30
0.0
 40
0.0
 41
0.0
  0
SEQEND
  5
1A3
100
AcDbEntity
  8
0
  0
POLYLINE
  5
1A4
100
AcDbEntity
  8
2
  6
CONTINUOUS
 62
     7
 48
0.125
100
AcDb2dPolyline
 66
     1
 10
0.0
 20
0.0
 30
0.0
 70
   128
  0
VERTEX
  5
1A5
100
AcDbEntity
  8
2
  6
CONTINUOUS
 62
     7
 48
0.125
100
AcDbVertex
100
AcDb2dVertex
 10
1.119787
 20
0.228048
 30
0.0
 40
0.0
 41
0.0
  0
VERTEX
  5
1A6
100
AcDbEntity
  8
2
  6
CONTINUOUS
 62
     7
 48
0.125
100
AcDbVertex
100
AcDb2dVertex
 10
1.119787
 20
-0.215221
 30
0.0
 40
0.0
 41
0.0
  0
SEQEND
  5
1A7
100
AcDbEntity
  8
0
  0
POLYLINE
  5
1A8
100
AcDbEntity
  8
2
  6
CONTINUOUS
 62
     7
 48
0.125
100
AcDb2dPolyline
 66
     1
 10
0.0
 20
0.0
 30
0.0
 70
   128
  0
VERTEX
  5
1A9
100
AcDbEntity
  8
2
  6
CONTINUOUS
 62
     7
 48
0.125
100
AcDbVertex
100
AcDb2dVertex
 10
1.025741
 20
0.275317
 30
0.0
 40
0.0
 41
0.0
  0
VERTEX
  5
1AA
100
AcDbEntity
  8
2
  6
CONTINUOUS
 62
     7
 48
0.125
100
AcDbVertex
100
AcDb2dVertex
 10
1.025741
 20
-0.262489
 30
0.0
 40
0.0
 41
0.0
  0
SEQEND
  5
1AB
100
AcDbEntity
  8
0
  0
POLYLINE
  5
1AC
100
AcDbEntity
  8
2
  6
CONTINUOUS
 62
     7
 48
0.125
100
AcDb2dPolyline
 66
     1
 10
0.0
 20
0.0
 30
0.0
 70
   128
  0
VERTEX
  5
1AD
100
AcDbEntity
  8
2
  6
CONTINUOUS
 62
     7
 48
0.125
100
AcDbVertex
100
AcDb2dVertex
 10
1.208654
 20
0.265608
 30
0.0
 40
0.0
 41
0.0
  0
VERTEX
  5
1AE
100
AcDbEntity
  8
2
  6
CONTINUOUS
 62
     7
 48
0.125
100
AcDbVertex
100
AcDb2dVertex
 10
1.208654
 20
-0.272198
 30
0.0
 40
0.0
 41
0.0
  0
SEQEND
  5
1AF
100
AcDbEntity
  8
0
  0
POLYLINE
  5
1B0
100
AcDbEntity
  8
2
  6
CONTINUOUS
 62
     7
 48
0.125
100
AcDb2dPolyline
 66
     1
 10
0.0
 20
0.0
 30
0.0
 70
   128
  0
VERTEX
  5
1B1
100
AcDbEntity
  8
2
  6
CONTINUOUS
 62
     7
 48
0.125
100
AcDbVertex
100
AcDb2dVertex
 10
0.936862
 20
0.354473
 30
0.0
 40
0.0
 41
0.0
  0
VERTEX
  5
1B2
100
AcDbEntity
  8
2
  6
CONTINUOUS
 62
     7
 48
0.125
100
AcDbVertex
100
AcDb2dVertex
 10
0.936862
 20
-0.361063
 30
0.0
 40
0.0
 41
0.0
  0
SEQEND
  5
1B3
100
AcDbEntity
  8
0
  0
POLYLINE
  5
1B4
100
AcDbEntity
  8
2
  6
CONTINUOUS
 62
     7
 48
0.125
100
AcDb2dPolyline
 66
     1
 10
0.0
 20
0.0
 30
0.0
 70
   128
  0
VERTEX
  5
1B5
100
AcDbEntity
  8
2
  6
CONTINUOUS
 62
     7
 48
0.125
100
AcDbVertex
100
AcDb2dVertex
 10
0.587141
 20
-0.153521
 30
0.0
 40
0.0
 41
0.0
  0
VERTEX
  5
1B6
100
AcDbEntity
  8
2
  6
CONTINUOUS
 62
     7
 48
0.125
100
AcDbVertex
100
AcDb2dVertex
 10
0.640534
 20
0.354473
 30
0.0
 40
0.0
 41
0.0
  0
SEQEND
  5
1B7
100
AcDbEntity
  8
0
  0
POLYLINE
  5
1B8
100
AcDbEntity
  8
2
  6
CONTINUOUS
 62
     7
 48
0.125
100
AcDb2dPolyline
 66
     1
 10
0.0
 20
0.0
 30
0.0
 70
   128
  0
VERTEX
  5
1B9
100
AcDbEntity
  8
2
  6
CONTINUOUS
 62
     7
 48
0.125
100
AcDbVertex
100
AcDb2dVertex
 10
0.587141
 20
-0.153521
 30
0.0
 40
0.0
 41
0.0
  0
VERTEX
  5
1BA
100
AcDbEntity
  8
2
  6
CONTINUOUS
 62
     7
 48
0.125
100
AcDbVertex
100
AcDb2dVertex
 10
0.533749
 20
0.354473
 30
0.0
 40
0.0
 41
0.0
  0
SEQEND
  5
1BB
100
AcDbEntity
  8
0
  0
POLYLINE
  5
1BC
100
AcDbEntity
  8
2
  6
CONTINUOUS
 62
     7
 48
0.125
100
AcDb2dPolyline
 66
     1
 10
0.0
 20
0.0
 30
0.0
 70
   128
  0
VERTEX
  5
1BD
100
AcDbEntity
  8
2
  6
CONTINUOUS
 62
     7
 48
0.125
100
AcDbVertex
100
AcDb2dVertex
 10
0.642209
 20
-0.361063
 30
0.0
 40
0.0
 41
0.0
  0
VERTEX
  5
1BE
100
AcDbEntity
  8
2
  6
CONTINUOUS
 62
     7
 48
0.125
100
AcDbVertex
100
AcDb2dVertex
 10
0.730066
 20
0.354473
 30
0.0
 40
0.0
 41
0.0
  0
SEQEND
  5
1BF
100
AcDbEntity
  8
0
  0
POLYLINE
  5
1C0
100
AcDbEntity
  8
2
  6
CONTINUOUS
 62
     7
 48
0.125
100
AcDb2dPolyline
 66
     1
 10
0.0
 20
0.0
 30
0.0
 70
   128
  0
VERTEX
  5
1C1
100
AcDbEntity
  8
2
  6
CONTINUOUS
 62
     7
 48
0.125
100
AcDbVertex
100
AcDb2dVertex
 10
0.281666
 20
0.192129
 30
0.0
 40
0.0
 41
0.0
  0
VERTEX
  5
1C2
100
AcDbEntity
  8
2
  6
CONTINUOUS
 62
     7
 48
0.125
100
AcDbVertex
100
AcDb2dVertex
 10
0.295801
 20
0.192129
 30
0.0
 40
0.0
 41
0.0
  0
SEQEND
  5
1C3
100
AcDbEntity
  8
0
  0
POLYLINE
  5
1C4
100
AcDbEntity
  8
2
  6
CONTINUOUS
 62
     7
 48
0.125
100
AcDb2dPolyline
 66
     1
 10
0.0
 20
0.0
 30
0.0
 70
   128
  0
VERTEX
  5
1C5
100
AcDbEntity
  8
2
  6
CONTINUOUS
 62
     7
 48
0.125
100
AcDbVertex
100
AcDb2dVertex
 10
0.281666
 20
0.192129
 30
0.0
 40
0.0
 41
0.0
  0
VERTEX
  5
1C6
100
AcDbEntity
  8
2
  6
CONTINUOUS
 62
     7
 48
0.125
100
AcDbVertex
100
AcDb2dVertex
 10
0.250025
 20
-0.065611
 30
0.0
 40
0.0
 41
0.0
  0
SEQEND
  5
1C7
100
AcDbEntity
  8
0
  0
POLYLINE
  5
1C8
100
AcDbEntity
  8
2
  6
CONTINUOUS
 62
     7
 48
0.125
100
AcDb2dPolyline
 66
     1
 10
0.0
 20
0.0
 30
0.0
 70
   128
  0
VERTEX
  5
1C9
100
AcDbEntity
  8
2
  6
CONTINUOUS
 62
     7
 48
0.125
100
AcDbVertex
100
AcDb2dVertex
 10
0.250025
 20
-0.065611
 30
0.0
 40
0.0
 41
0.0
  0
VERTEX
  5
1CA
100
AcDbEntity
  8
2
  6
CONTINUOUS
 62
     7
 48
0.125
100
AcDbVertex
100
AcDb2dVertex
 10
0.327448
 20
-0.065611
 30
0.0
 40
0.0
 41
0.0
  0
SEQEND
  5
1CB
100
AcDbEntity
  8
0
  0
POLYLINE
  5
1CC
100
AcDbEntity
  8
2
  6
CONTINUOUS
 62
     7
 48
0.125
100
AcDb2dPolyline
 66
     1
 10
0.0
 20
0.0
 30
0.0
 70
   128
  0
VERTEX
  5
1CD
100
AcDbEntity
  8
2
  6
CONTINUOUS
 62
     7
 48
0.125
100
AcDbVertex
100
AcDb2dVertex
 10
0.444216
 20
0.354473
 30
0.0
 40
0.0
 41
0.0
  0
VERTEX
  5
1CE
100
AcDbEntity
  8
2
  6
CONTINUOUS
 62
     7
 48
0.125
100
AcDbVertex
100
AcDb2dVertex
 10
0.532073
 20
-0.361063
 30
0.0
 40
0.0
 41
0.0
  0
SEQEND
  5
1CF
100
AcDbEntity
  8
0
  0
POLYLINE
  5
1D0
100
AcDbEntity
  8
2
  6
CONTINUOUS
 62
     7
 48
0.125
100
AcDb2dPolyline
 66
     1
 10
0.0
 20
0.0
 30
0.0
 70
   128
  0
VERTEX
  5
1D1
100
AcDbEntity
  8
2
  6
CONTINUOUS
 62
     7
 48
0.125
100
AcDbVertex
100
AcDb2dVertex
 10
0.3409
 20
-0.175166
 30
0.0
 40
0.0
 41
0.0
  0
VERTEX
  5
1D2
100
AcDbEntity
  8
2
  6
CONTINUOUS
 62
     7
 48
0.125
100
AcDbVertex
100
AcDb2dVertex
 10
0.363725
 20
-0.361063
 30
0.0
 40
0.0
 41
0.0
  0
SEQEND
  5
1D3
100
AcDbEntity
  8
0
  0
POLYLINE
  5
1D4
100
AcDbEntity
  8
2
  6
CONTINUOUS
 62
     7
 48
0.125
100
AcDb2dPolyline
 66
     1
 10
0.0
 20
0.0
 30
0.0
 70
   128
  0
VERTEX
  5
1D5
100
AcDbEntity
  8
2
  6
CONTINUOUS
 62
     7
 48
0.125
100
AcDbVertex
100
AcDb2dVertex
 10
0.3409
 20
-0.175166
 30
0.0
 40
0.0
 41
0.0
  0
VERTEX
  5
1D6
100
AcDbEntity
  8
2
  6
CONTINUOUS
 62
     7
 48
0.125
100
AcDbVertex
100
AcDb2dVertex
 10
0.236575
 20
-0.175166
 30
0.0
 40
0.0
 41
0.0
  0
SEQEND
  5
1D7
100
AcDbEntity
  8
0
  0
POLYLINE
  5
1D8
100
AcDbEntity
  8
2
  6
CONTINUOUS
 62
     7
 48
0.125
100
AcDb2dPolyline
 66
     1
 10
0.0
 20
0.0
 30
0.0
 70
   128
  0
VERTEX
  5
1D9
100
AcDbEntity
  8
2
  6
CONTINUOUS
 62
     7
 48
0.125
100
AcDbVertex
100
AcDb2dVertex
 10
0.212071
 20
0.354473
 30
0.0
 40
0.0
 41
0.0
  0
VERTEX
  5
1DA
100
AcDbEntity
  8
2
  6
CONTINUOUS
 62
     7
 48
0.125
100
AcDbVertex
100
AcDb2dVertex
 10
0.124214
 20
-0.361063
 30
0.0
 40
0.0
 41
0.0
  0
SEQEND
  5
1DB
100
AcDbEntity
  8
0
  0
POLYLINE
  5
1DC
100
AcDbEntity
  8
2
  6
CONTINUOUS
 62
     7
 48
0.125
100
AcDb2dPolyline
 66
     1
 10
0.0
 20
0.0
 30
0.0
 70
   128
  0
VERTEX
  5
1DD
100
AcDbEntity
  8
2
  6
CONTINUOUS
 62
     7
 48
0.125
100
AcDbVertex
100
AcDb2dVertex
 10
0.365397
 20
0.354473
 30
0.0
 40
0.0
 41
0.0
  0
VERTEX
  5
1DE
100
AcDbEntity
  8
2
  6
CONTINUOUS
 62
     7
 48
0.125
100
AcDbVertex
100
AcDb2dVertex
 10
0.453257
 20
-0.361063
 30
0.0
 40
0.0
 41
0.0
  0
SEQEND
  5
1DF
100
AcDbEntity
  8
0
  0
POLYLINE
  5
1E0
100
AcDbEntity
  8
2
  6
CONTINUOUS
 62
     7
 48
0.125
100
AcDb2dPolyline
 66
     1
 10
0.0
 20
0.0
 30
0.0
 70
   128
  0
VERTEX
  5
1E1
100
AcDbEntity
  8
2
  6
CONTINUOUS
 62
     7
 48
0.125
100
AcDbVertex
100
AcDb2dVertex
 10
0.005682
 20
0.218342
 30
0.0
 40
0.0
 41
0.0
  0
VERTEX
  5
1E2
100
AcDbEntity
  8
2
  6
CONTINUOUS
 62
     7
 48
0.125
100
AcDbVertex
100
AcDb2dVertex
 10
0.005682
 20
-0.224927
 30
0.0
 40
0.0
 41
0.0
  0
SEQEND
  5
1E3
100
AcDbEntity
  8
0
  0
POLYLINE
  5
1E4
100
AcDbEntity
  8
2
  6
CONTINUOUS
 62
     7
 48
0.125
100
AcDb2dPolyline
 66
     1
 10
0.0
 20
0.0
 30
0.0
 70
   128
  0
VERTEX
  5
1E5
100
AcDbEntity
  8
2
  6
CONTINUOUS
 62
     7
 48
0.125
100
AcDbVertex
100
AcDb2dVertex
 10
-0.041587
 20
0.26561
 30
0.0
 40
0.0
 41
0.0
  0
VERTEX
  5
1E6
100
AcDbEntity
  8
2
  6
CONTINUOUS
 62
     7
 48
0.125
100
AcDbVertex
100
AcDb2dVertex
 10
-0.088377
 20
0.26561
 30
0.0
 40
0.0
 41
0.0
  0
SEQEND
  5
1E7
100
AcDbEntity
  8
0
  0
POLYLINE
  5
1E8
100
AcDbEntity
  8
2
  6
CONTINUOUS
 62
     7
 48
0.125
100
AcDb2dPolyline
 66
     1
 10
0.0
 20
0.0
 30
0.0
 70
   128
  0
VERTEX
  5
1E9
100
AcDbEntity
  8
2
  6
CONTINUOUS
 62
     7
 48
0.125
100
AcDbVertex
100
AcDb2dVertex
 10
-0.088377
 20
0.26561
 30
0.0
 40
0.0
 41
0.0
  0
VERTEX
  5
1EA
100
AcDbEntity
  8
2
  6
CONTINUOUS
 62
     7
 48
0.125
100
AcDbVertex
100
AcDb2dVertex
 10
-0.088377
 20
-0.271701
 30
0.0
 40
0.0
 41
0.0
  0
SEQEND
  5
1EB
100
AcDbEntity
  8
0
  0
POLYLINE
  5
1EC
100
AcDbEntity
  8
2
  6
CONTINUOUS
 62
     7
 48
0.125
100
AcDb2dPolyline
 66
     1
 10
0.0
 20
0.0
 30
0.0
 70
   128
  0
VERTEX
  5
1ED
100
AcDbEntity
  8
2
  6
CONTINUOUS
 62
     7
 48
0.125
100
AcDbVertex
100
AcDb2dVertex
 10
0.094551
 20
0.265608
 30
0.0
 40
0.0
 41
0.0
  0
VERTEX
  5
1EE
100
AcDbEntity
  8
2
  6
CONTINUOUS
 62
     7
 48
0.125
100
AcDbVertex
100
AcDb2dVertex
 10
0.094551
 20
-0.272198
 30
0.0
 40
0.0
 41
0.0
  0
SEQEND
  5
1EF
100
AcDbEntity
  8
0
  0
POLYLINE
  5
1F0
100
AcDbEntity
  8
2
  6
CONTINUOUS
 62
     7
 48
0.125
100
AcDb2dPolyline
 66
     1
 10
0.0
 20
0.0
 30
0.0
 70
   128
  0
VERTEX
  5
1F1
100
AcDbEntity
  8
2
  6
CONTINUOUS
 62
     7
 48
0.125
100
AcDbVertex
100
AcDb2dVertex
 10
-0.17724
 20
0.354473
 30
0.0
 40
0.0
 41
0.0
  0
VERTEX
  5
1F2
100
AcDbEntity
  8
2
  6
CONTINUOUS
 62
     7
 48
0.125
100
AcDbVertex
100
AcDb2dVertex
 10
-0.17724
 20
-0.361063
 30
0.0
 40
0.0
 41
0.0
  0
SEQEND
  5
1F3
100
AcDbEntity
  8
0
  0
POLYLINE
  5
1F4
100
AcDbEntity
  8
2
  6
CONTINUOUS
 62
     7
 48
0.125
100
AcDb2dPolyline
 66
     1
 10
0.0
 20
0.0
 30
0.0
 70
   128
  0
VERTEX
  5
1F5
100
AcDbEntity
  8
2
  6
CONTINUOUS
 62
     7
 48
0.125
100
AcDbVertex
100
AcDb2dVertex
 10
-0.413552
 20
0.032823
 30
0.0
 40
0.0
 41
0.0
  0
VERTEX
  5
1F6
100
AcDbEntity
  8
2
  6
CONTINUOUS
 62
     7
 48
0.125
100
AcDbVertex
100
AcDb2dVertex
 10
-0.413552
 20
-0.052512
 30
0.0
 40
0.0
 41
0.0
  0
SEQEND
  5
1F7
100
AcDbEntity
  8
0
  0
POLYLINE
  5
1F8
100
AcDbEntity
  8
2
  6
CONTINUOUS
 62
     7
 48
0.125
100
AcDb2dPolyline
 66
     1
 10
0.0
 20
0.0
 30
0.0
 70
   128
  0
VERTEX
  5
1F9
100
AcDbEntity
  8
2
  6
CONTINUOUS
 62
     7
 48
0.125
100
AcDbVertex
100
AcDb2dVertex
 10
-0.242881
 20
0.032823
 30
0.0
 40
0.0
 41
0.0
  0
VERTEX
  5
1FA
100
AcDbEntity
  8
2
  6
CONTINUOUS
 62
     7
 48
0.125
100
AcDbVertex
100
AcDb2dVertex
 10
-0.242881
 20
-0.052512
 30
0.0
 40
0.0
 41
0.0
  0
SEQEND
  5
1FB
100
AcDbEntity
  8
0
  0
POLYLINE
  5
1FC
100
AcDbEntity
  8
2
  6
CONTINUOUS
 62
     7
 48
0.125
100
AcDb2dPolyline
 66
     1
 10
0.0
 20
0.0
 30
0.0
 70
   128
  0
VERTEX
  5
1FD
100
AcDbEntity
  8
2
  6
CONTINUOUS
 62
     7
 48
0.125
100
AcDbVertex
100
AcDb2dVertex
 10
-0.413552
 20
-0.052512
 30
0.0
 40
0.0
 41
0.0
  0
VERTEX
  5
1FE
100
AcDbEntity
  8
2
  6
CONTINUOUS
 62
     7
 48
0.125
100
AcDbVertex
100
AcDb2dVertex
 10
-0.242881
 20
-0.052512
 30
0.0
 40
0.0
 41
0.0
  0
SEQEND
  5
1FF
100
AcDbEntity
  8
0
  0
POLYLINE
  5
200
100
AcDbEntity
  8
2
  6
CONTINUOUS
 62
     7
 48
0.125
100
AcDb2dPolyline
 66
     1
 10
0.0
 20
0.0
 30
0.0
 70
   128
  0
VERTEX
  5
201
100
AcDbEntity
  8
2
  6
CONTINUOUS
 62
     7
 48
0.125
100
AcDbVertex
100
AcDb2dVertex
 10
-0.413552
 20
0.032823
 30
0.0
 40
0.0
 41
0.0
  0
VERTEX
  5
202
100
AcDbEntity
  8
2
  6
CONTINUOUS
 62
     7
 48
0.125
100
AcDbVertex
100
AcDb2dVertex
 10
-0.242881
 20
0.032823
 30
0.0
 40
0.0
 41
0.0
  0
SEQEND
  5
203
100
AcDbEntity
  8
0
  0
POLYLINE
  5
204
100
AcDbEntity
  8
2
  6
CONTINUOUS
 62
     7
 48
0.125
100
AcDb2dPolyline
 66
     1
 10
0.0
 20
0.0
 30
0.0
 70
   128
  0
VERTEX
  5
205
100
AcDbEntity
  8
2
  6
CONTINUOUS
 62
     7
 48
0.125
100
AcDbVertex
100
AcDb2dVertex
 10
-0.538391
 20
-0.094451
 30
0.0
 40
0.0
 41
0.0
  0
VERTEX
  5
206
100
AcDbEntity
  8
2
  6
CONTINUOUS
 62
     7
 48
0.125
100
AcDbVertex
100
AcDb2dVertex
 10
-0.538391
 20
-0.361063
 30
0.0
 40
0.0
 41
0.0
  0
SEQEND
  5
207
100
AcDbEntity
  8
0
  0
POLYLINE
  5
208
100
AcDbEntity
  8
2
  6
CONTINUOUS
 62
     7
 48
0.125
100
AcDb2dPolyline
 66
     1
 10
0.0
 20
0.0
 30
0.0
 70
   128
  0
VERTEX
  5
209
100
AcDbEntity
  8
2
  6
CONTINUOUS
 62
     7
 48
0.125
100
AcDbVertex
100
AcDb2dVertex
 10
-0.62702
 20
-0.094451
 30
0.0
 40
0.0
 41
0.0
  0
VERTEX
  5
20A
100
AcDbEntity
  8
2
  6
CONTINUOUS
 62
     7
 48
0.125
100
AcDbVertex
100
AcDb2dVertex
 10
-0.62702
 20
-0.361063
 30
0.0
 40
0.0
 41
0.0
  0
SEQEND
  5
20B
100
AcDbEntity
  8
0
  0
POLYLINE
  5
20C
100
AcDbEntity
  8
2
  6
CONTINUOUS
 62
     7
 48
0.125
100
AcDb2dPolyline
 66
     1
 10
0.0
 20
0.0
 30
0.0
 70
   128
  0
VERTEX
  5
20D
100
AcDbEntity
  8
2
  6
CONTINUOUS
 62
     7
 48
0.125
100
AcDbVertex
100
AcDb2dVertex
 10
-0.582705
 20
0.108644
 30
0.0
 40
0.0
 41
0.0
  0
VERTEX
  5
20E
100
AcDbEntity
  8
2
  6
CONTINUOUS
 62
     7
 48
0.125
100
AcDbVertex
100
AcDb2dVertex
 10
-0.525951
 20
0.354473
 30
0.0
 40
0.0
 41
0.0
  0
SEQEND
  5
20F
100
AcDbEntity
  8
0
  0
POLYLINE
  5
210
100
AcDbEntity
  8
2
  6
CONTINUOUS
 62
     7
 48
0.125
100
AcDb2dPolyline
 66
     1
 10
0.0
 20
0.0
 30
0.0
 70
   128
  0
VERTEX
  5
211
100
AcDbEntity
  8
2
  6
CONTINUOUS
 62
     7
 48
0.125
100
AcDbVertex
100
AcDb2dVertex
 10
-0.582705
 20
0.108644
 30
0.0
 40
0.0
 41
0.0
  0
VERTEX
  5
212
100
AcDbEntity
  8
2
  6
CONTINUOUS
 62
     7
 48
0.125
100
AcDbVertex
100
AcDb2dVertex
 10
-0.639459
 20
0.354473
 30
0.0
 40
0.0
 41
0.0
  0
SEQEND
  5
213
100
AcDbEntity
  8
0
  0
POLYLINE
  5
214
100
AcDbEntity
  8
2
  6
CONTINUOUS
 62
     7
 48
0.125
100
AcDb2dPolyline
 66
     1
 10
0.0
 20
0.0
 30
0.0
 70
   128
  0
VERTEX
  5
215
100
AcDbEntity
  8
2
  6
CONTINUOUS
 62
     7
 48
0.125
100
AcDbVertex
100
AcDb2dVertex
 10
-0.538391
 20
-0.094451
 30
0.0
 40
0.0
 41
0.0
  0
VERTEX
  5
216
100
AcDbEntity
  8
2
  6
CONTINUOUS
 62
     7
 48
0.125
100
AcDbVertex
100
AcDb2dVertex
 10
-0.434749
 20
0.354473
 30
0.0
 40
0.0
 41
0.0
  0
SEQEND
  5
217
100
AcDbEntity
  8
0
  0
POLYLINE
  5
218
100
AcDbEntity
  8
2
  6
CONTINUOUS
 62
     7
 48
0.125
100
AcDb2dPolyline
 66
     1
 10
0.0
 20
0.0
 30
0.0
 70
   128
  0
VERTEX
  5
219
100
AcDbEntity
  8
2
  6
CONTINUOUS
 62
     7
 48
0.125
100
AcDbVertex
100
AcDb2dVertex
 10
-0.62702
 20
-0.094451
 30
0.0
 40
0.0
 41
0.0
  0
VERTEX
  5
21A
100
AcDbEntity
  8
2
  6
CONTINUOUS
 62
     7
 48
0.125
100
AcDbVertex
100
AcDb2dVertex
 10
-0.730662
 20
0.354473
 30
0.0
 40
0.0
 41
0.0
  0
SEQEND
  5
21B
100
AcDbEntity
  8
0
  0
POLYLINE
  5
21C
100
AcDbEntity
  8
2
  6
CONTINUOUS
 62
     7
 48
0.125
100
AcDb2dPolyline
 66
     1
 10
0.0
 20
0.0
 30
0.0
 70
   128
  0
VERTEX
  5
21D
100
AcDbEntity
  8
2
  6
CONTINUOUS
 62
     7
 48
0.125
100
AcDbVertex
100
AcDb2dVertex
 10
-0.75316
 20
0.265608
 30
0.0
 40
0.0
 41
0.0
  0
VERTEX
  5
21E
100
AcDbEntity
  8
2
  6
CONTINUOUS
 62
     7
 48
0.125
100
AcDbVertex
100
AcDb2dVertex
 10
-0.75316
 20
0.354473
 30
0.0
 40
0.0
 41
0.0
  0
SEQEND
  5
21F
100
AcDbEntity
  8
0
  0
POLYLINE
  5
220
100
AcDbEntity
  8
2
  6
CONTINUOUS
 62
     7
 48
0.125
100
AcDb2dPolyline
 66
     1
 10
0.0
 20
0.0
 30
0.0
 70
   128
  0
VERTEX
  5
221
100
AcDbEntity
  8
2
  6
CONTINUOUS
 62
     7
 48
0.125
100
AcDbVertex
100
AcDb2dVertex
 10
-0.89528
 20
0.070861
 30
0.0
 40
0.0
 41
0.0
  0
VERTEX
  5
222
100
AcDbEntity
  8
2
  6
CONTINUOUS
 62
     7
 48
0.125
100
AcDbVertex
100
AcDb2dVertex
 10
-0.75316
 20
0.070861
 30
0.0
 40
0.0
 41
0.0
  0
SEQEND
  5
223
100
AcDbEntity
  8
0
  0
POLYLINE
  5
224
100
AcDbEntity
  8
2
  6
CONTINUOUS
 62
     7
 48
0.125
100
AcDb2dPolyline
 66
     1
 10
0.0
 20
0.0
 30
0.0
 70
   128
  0
VERTEX
  5
225
100
AcDbEntity
  8
2
  6
CONTINUOUS
 62
     7
 48
0.125
100
AcDbVertex
100
AcDb2dVertex
 10
0.872996
 20
0.354473
 30
0.0
 40
0.0
 41
0.0
  0
VERTEX
  5
226
100
AcDbEntity
  8
2
  6
CONTINUOUS
 62
     7
 48
0.125
100
AcDbVertex
100
AcDb2dVertex
 10
0.872996
 20
-0.361063
 30
0.0
 40
0.0
 41
0.0
  0
SEQEND
  5
227
100
AcDbEntity
  8
0
  0
POLYLINE
  5
228
100
AcDbEntity
  8
2
  6
CONTINUOUS
 62
     7
 48
0.125
100
AcDb2dPolyline
 66
     1
 10
0.0
 20
0.0
 30
0.0
 70
   128
  0
VERTEX
  5
229
100
AcDbEntity
  8
2
  6
CONTINUOUS
 62
     7
 48
0.125
100
AcDbVertex
100
AcDb2dVertex
 10
0.768018
 20
0.354473
 30
0.0
 40
0.0
 41
0.0
  0
VERTEX
  5
22A
100
AcDbEntity
  8
2
  6
CONTINUOUS
 62
     7
 48
0.125
100
AcDbVertex
100
AcDb2dVertex
 10
0.768018
 20
-0.361063
 30
0.0
 40
0.0
 41
0.0
  0
SEQEND
  5
22B
100
AcDbEntity
  8
0
  0
POLYLINE
  5
22C
100
AcDbEntity
  8
2
  6
CONTINUOUS
 62
     7
 48
0.125
100
AcDb2dPolyline
 66
     1
 10
0.0
 20
0.0
 30
0.0
 70
   128
  0
VERTEX
  5
22D
100
AcDbEntity
  8
2
  6
CONTINUOUS
 62
     7
 48
0.125
100
AcDbVertex
100
AcDb2dVertex
 10
-0.895276
 20
-0.030182
 30
0.0
 40
0.0
 41
0.0
  0
VERTEX
  5
22E
100
AcDbEntity
  8
2
  6
CONTINUOUS
 62
     7
 48
0.125
100
AcDbVertex
100
AcDb2dVertex
 10
-0.75316
 20
-0.030182
 30
0.0
 40
0.0
 41
0.0
  0
SEQEND
  5
22F
100
AcDbEntity
  8
0
  0
POLYLINE
  5
230
100
AcDbEntity
  8
2
  6
CONTINUOUS
 62
     7
 48
0.125
100
AcDb2dPolyline
 66
     1
 10
0.0
 20
0.0
 30
0.0
 70
   128
  0
VERTEX
  5
231
100
AcDbEntity
  8
2
  6
CONTINUOUS
 62
     7
 48
0.125
100
AcDbVertex
100
AcDb2dVertex
 10
-0.984145
 20
0.354473
 30
0.0
 40
0.0
 41
0.0
  0
VERTEX
  5
232
100
AcDbEntity
  8
2
  6
CONTINUOUS
 62
     7
 48
0.125
100
AcDbVertex
100
AcDb2dVertex
 10
-0.984145
 20
-0.361063
 30
0.0
 40
0.0
 41
0.0
  0
SEQEND
  5
233
100
AcDbEntity
  8
0
  0
POLYLINE
  5
234
100
AcDbEntity
  8
2
  6
CONTINUOUS
 62
     7
 48
0.125
100
AcDb2dPolyline
 66
     1
 10
0.0
 20
0.0
 30
0.0
 70
   128
  0
VERTEX
  5
235
100
AcDbEntity
  8
2
  6
CONTINUOUS
 62
     7
 48
0.125
100
AcDbVertex
100
AcDb2dVertex
 10
-0.89528
 20
0.265608
 30
0.0
 40
0.0
 41
0.0
  0
VERTEX
  5
236
100
AcDbEntity
  8
2
  6
CONTINUOUS
 62
     7
 48
0.125
100
AcDbVertex
100
AcDb2dVertex
 10
-0.89528
 20
0.070861
 30
0.0
 40
0.0
 41
0.0
  0
SEQEND
  5
237
100
AcDbEntity
  8
0
  0
POLYLINE
  5
238
100
AcDbEntity
  8
2
  6
CONTINUOUS
 62
     7
 48
0.125
100
AcDb2dPolyline
 66
     1
 10
0.0
 20
0.0
 30
0.0
 70
   128
  0
VERTEX
  5
239
100
AcDbEntity
  8
2
  6
CONTINUOUS
 62
     7
 48
0.125
100
AcDbVertex
100
AcDb2dVertex
 10
-1.012507
 20
-0.272213
 30
0.0
 40
0.0
 41
0.0
  0
VERTEX
  5
23A
100
AcDbEntity
  8
2
  6
CONTINUOUS
 62
     7
 48
0.125
100
AcDbVertex
100
AcDb2dVertex
 10
-1.012507
 20
-0.361063
 30
0.0
 40
0.0
 41
0.0
  0
SEQEND
  5
23B
100
AcDbEntity
  8
0
  0
POLYLINE
  5
23C
100
AcDbEntity
  8
2
  6
CONTINUOUS
 62
     7
 48
0.125
100
AcDb2dPolyline
 66
     1
 10
0.0
 20
0.0
 30
0.0
 70
   128
  0
VERTEX
  5
23D
100
AcDbEntity
  8
2
  6
CONTINUOUS
 62
     7
 48
0.125
100
AcDbVertex
100
AcDb2dVertex
 10
-1.137043
 20
-0.272213
 30
0.0
 40
0.0
 41
0.0
  0
VERTEX
  5
23E
100
AcDbEntity
  8
2
  6
CONTINUOUS
 62
     7
 48
0.125
100
AcDbVertex
100
AcDb2dVertex
 10
-1.137043
 20
0.354473
 30
0.0
 40
0.0
 41
0.0
  0
SEQEND
  5
23F
100
AcDbEntity
  8
0
  0
POLYLINE
  5
240
100
AcDbEntity
  8
2
  6
CONTINUOUS
 62
     7
 48
0.125
100
AcDb2dPolyline
 66
     1
 10
0.0
 20
0.0
 30
0.0
 70
   128
  0
VERTEX
  5
241
100
AcDbEntity
  8
2
  6
CONTINUOUS
 62
     7
 48
0.125
100
AcDbVertex
100
AcDb2dVertex
 10
-1.225908
 20
-0.361063
 30
0.0
 40
0.0
 41
0.0
  0
VERTEX
  5
242
100
AcDbEntity
  8
2
  6
CONTINUOUS
 62
     7
 48
0.125
100
AcDbVertex
100
AcDb2dVertex
 10
-1.225908
 20
0.354473
 30
0.0
 40
0.0
 41
0.0
  0
SEQEND
  5
243
100
AcDbEntity
  8
0
  0
POLYLINE
  5
244
100
AcDbEntity
  8
2
  6
CONTINUOUS
 62
     7
 48
0.125
100
AcDb2dPolyline
 66
     1
 10
0.0
 20
0.0
 30
0.0
 70
   128
  0
VERTEX
  5
245
100
AcDbEntity
  8
2
  6
CONTINUOUS
 62
     7
 48
0.125
100
AcDbVertex
100
AcDb2dVertex
 10
-1.480459
 20
0.265608
 30
0.0
 40
0.0
 41
0.0
  0
VERTEX
  5
246
100
AcDbEntity
  8
2
  6
CONTINUOUS
 62
     7
 48
0.125
100
AcDbVertex
100
AcDb2dVertex
 10
-1.480459
 20
0.043451
 30
0.0
 40
0.0
 41
0.0
  0
SEQEND
  5
247
100
AcDbEntity
  8
0
  0
POLYLINE
  5
248
100
AcDbEntity
  8
2
  6
CONTINUOUS
 62
     7
 48
0.125
100
AcDb2dPolyline
 66
     1
 10
0.0
 20
0.0
 30
0.0
 70
   128
  0
VERTEX
  5
249
100
AcDbEntity
  8
2
  6
CONTINUOUS
 62
     7
 48
0.125
100
AcDbVertex
100
AcDb2dVertex
 10
-1.462725
 20
-0.082283
 30
0.0
 40
0.0
 41
0.0
  0
VERTEX
  5
24A
100
AcDbEntity
  8
2
  6
CONTINUOUS
 62
     7
 48
0.125
100
AcDbVertex
100
AcDb2dVertex
 10
-1.480459
 20
-0.082283
 30
0.0
 40
0.0
 41
0.0
  0
SEQEND
  5
24B
100
AcDbEntity
  8
0
  0
POLYLINE
  5
24C
100
AcDbEntity
  8
2
  6
CONTINUOUS
 62
     7
 48
0.125
100
AcDb2dPolyline
 66
     1
 10
0.0
 20
0.0
 30
0.0
 70
   128
  0
VERTEX
  5
24D
100
AcDbEntity
  8
2
  6
CONTINUOUS
 62
     7
 48
0.125
100
AcDbVertex
100
AcDb2dVertex
 10
-1.480459
 20
0.043451
 30
0.0
 40
0.0
 41
0.0
  0
VERTEX
  5
24E
100
AcDbEntity
  8
2
  6
CONTINUOUS
 62
     7
 48
0.125
100
AcDbVertex
100
AcDb2dVertex
 10
-1.432945
 20
0.043451
 30
0.0
 40
0.0
 41
0.0
  0
SEQEND
  5
24F
100
AcDbEntity
  8
0
  0
POLYLINE
  5
250
100
AcDbEntity
  8
2
  6
CONTINUOUS
 62
     7
 48
0.125
100
AcDb2dPolyline
 66
     1
 10
0.0
 20
0.0
 30
0.0
 70
   128
  0
VERTEX
  5
251
100
AcDbEntity
  8
2
  6
CONTINUOUS
 62
     7
 48
0.125
100
AcDbVertex
100
AcDb2dVertex
 10
-1.37386
 20
0.102537
 30
0.0
 40
0.0
 41
0.0
  0
VERTEX
  5
252
100
AcDbEntity
  8
2
  6
CONTINUOUS
 62
     7
 48
0.125
100
AcDbVertex
100
AcDb2dVertex
 10
-1.37386
 20
0.206522
 30
0.0
 40
0.0
 41
0.0
  0
SEQEND
  5
253
100
AcDbEntity
  8
0
  0
POLYLINE
  5
254
100
AcDbEntity
  8
2
  6
CONTINUOUS
 62
     7
 48
0.125
100
AcDb2dPolyline
 66
     1
 10
0.0
 20
0.0
 30
0.0
 70
   128
  0
VERTEX
  5
255
100
AcDbEntity
  8
2
  6
CONTINUOUS
 62
     7
 48
0.125
100
AcDbVertex
100
AcDb2dVertex
 10
-1.284994
 20
0.067086
 30
0.0
 40
0.0
 41
0.0
  0
VERTEX
  5
256
100
AcDbEntity
  8
2
  6
CONTINUOUS
 62
     7
 48
0.125
100
AcDbVertex
100
AcDb2dVertex
 10
-1.284994
 20
0.265608
 30
0.0
 40
0.0
 41
0.0
  0
SEQEND
  5
257
100
AcDbEntity
  8
0
  0
POLYLINE
  5
258
100
AcDbEntity
  8
2
  6
CONTINUOUS
 62
     7
 48
0.125
100
AcDb2dPolyline
 66
     1
 10
0.0
 20
0.0
 30
0.0
 70
   128
  0
VERTEX
  5
259
100
AcDbEntity
  8
2
  6
CONTINUOUS
 62
     7
 48
0.125
100
AcDbVertex
100
AcDb2dVertex
 10
-1.569324
 20
-0.361063
 30
0.0
 40
0.0
 41
0.0
  0
VERTEX
  5
25A
100
AcDbEntity
  8
2
  6
CONTINUOUS
 62
     7
 48
0.125
100
AcDbVertex
100
AcDb2dVertex
 10
-1.569324
 20
0.354473
 30
0.0
 40
0.0
 41
0.0
  0
SEQEND
  5
25B
100
AcDbEntity
  8
0
  0
POLYLINE
  5
25C
100
AcDbEntity
  8
2
  6
CONTINUOUS
 62
     7
 48
0.125
100
AcDb2dPolyline
 66
     1
 10
0.0
 20
0.0
 30
0.0
 70
   128
  0
VERTEX
  5
25D
100
AcDbEntity
  8
2
  6
CONTINUOUS
 62
     7
 48
0.125
100
AcDbVertex
100
AcDb2dVertex
 10
-1.773163
 20
0.192099
 30
0.0
 40
0.0
 41
0.0
  0
VERTEX
  5
25E
100
AcDbEntity
  8
2
  6
CONTINUOUS
 62
     7
 48
0.125
100
AcDbVertex
100
AcDb2dVertex
 10
-1.759028
 20
0.192099
 30
0.0
 40
0.0
 41
0.0
  0
SEQEND
  5
25F
100
AcDbEntity
  8
0
  0
POLYLINE
  5
260
100
AcDbEntity
  8
2
  6
CONTINUOUS
 62
     7
 48
0.125
100
AcDb2dPolyline
 66
     1
 10
0.0
 20
0.0
 30
0.0
 70
   128
  0
VERTEX
  5
261
100
AcDbEntity
  8
2
  6
CONTINUOUS
 62
     7
 48
0.125
100
AcDbVertex
100
AcDb2dVertex
 10
-1.773163
 20
0.192099
 30
0.0
 40
0.0
 41
0.0
  0
VERTEX
  5
262
100
AcDbEntity
  8
2
  6
CONTINUOUS
 62
     7
 48
0.125
100
AcDbVertex
100
AcDb2dVertex
 10
-1.804809
 20
-0.065641
 30
0.0
 40
0.0
 41
0.0
  0
SEQEND
  5
263
100
AcDbEntity
  8
0
  0
POLYLINE
  5
264
100
AcDbEntity
  8
2
  6
CONTINUOUS
 62
     7
 48
0.125
100
AcDb2dPolyline
 66
     1
 10
0.0
 20
0.0
 30
0.0
 70
   128
  0
VERTEX
  5
265
100
AcDbEntity
  8
2
  6
CONTINUOUS
 62
     7
 48
0.125
100
AcDbVertex
100
AcDb2dVertex
 10
-1.804809
 20
-0.065641
 30
0.0
 40
0.0
 41
0.0
  0
VERTEX
  5
266
100
AcDbEntity
  8
2
  6
CONTINUOUS
 62
     7
 48
0.125
100
AcDbVertex
100
AcDb2dVertex
 10
-1.727381
 20
-0.065641
 30
0.0
 40
0.0
 41
0.0
  0
SEQEND
  5
267
100
AcDbEntity
  8
0
  0
POLYLINE
  5
268
100
AcDbEntity
  8
2
  6
CONTINUOUS
 62
     7
 48
0.125
100
AcDb2dPolyline
 66
     1
 10
0.0
 20
0.0
 30
0.0
 70
   128
  0
VERTEX
  5
269
100
AcDbEntity
  8
2
  6
CONTINUOUS
 62
     7
 48
0.125
100
AcDbVertex
100
AcDb2dVertex
 10
-1.713933
 20
-0.175166
 30
0.0
 40
0.0
 41
0.0
  0
VERTEX
  5
26A
100
AcDbEntity
  8
2
  6
CONTINUOUS
 62
     7
 48
0.125
100
AcDbVertex
100
AcDb2dVertex
 10
-1.691108
 20
-0.361063
 30
0.0
 40
0.0
 41
0.0
  0
SEQEND
  5
26B
100
AcDbEntity
  8
0
  0
POLYLINE
  5
26C
100
AcDbEntity
  8
2
  6
CONTINUOUS
 62
     7
 48
0.125
100
AcDb2dPolyline
 66
     1
 10
0.0
 20
0.0
 30
0.0
 70
   128
  0
VERTEX
  5
26D
100
AcDbEntity
  8
2
  6
CONTINUOUS
 62
     7
 48
0.125
100
AcDbVertex
100
AcDb2dVertex
 10
-1.689432
 20
0.354473
 30
0.0
 40
0.0
 41
0.0
  0
VERTEX
  5
26E
100
AcDbEntity
  8
2
  6
CONTINUOUS
 62
     7
 48
0.125
100
AcDbVertex
100
AcDb2dVertex
 10
-1.601575
 20
-0.361063
 30
0.0
 40
0.0
 41
0.0
  0
SEQEND
  5
26F
100
AcDbEntity
  8
0
  0
POLYLINE
  5
270
100
AcDbEntity
  8
2
  6
CONTINUOUS
 62
     7
 48
0.125
100
AcDb2dPolyline
 66
     1
 10
0.0
 20
0.0
 30
0.0
 70
   128
  0
VERTEX
  5
271
100
AcDbEntity
  8
2
  6
CONTINUOUS
 62
     7
 48
0.125
100
AcDbVertex
100
AcDb2dVertex
 10
-1.842758
 20
0.354473
 30
0.0
 40
0.0
 41
0.0
  0
VERTEX
  5
272
100
AcDbEntity
  8
2
  6
CONTINUOUS
 62
     7
 48
0.125
100
AcDbVertex
100
AcDb2dVertex
 10
-1.930615
 20
-0.361063
 30
0.0
 40
0.0
 41
0.0
  0
SEQEND
  5
273
100
AcDbEntity
  8
0
  0
POLYLINE
  5
274
100
AcDbEntity
  8
2
  6
CONTINUOUS
 62
     7
 48
0.125
100
AcDb2dPolyline
 66
     1
 10
0.0
 20
0.0
 30
0.0
 70
   128
  0
VERTEX
  5
275
100
AcDbEntity
  8
2
  6
CONTINUOUS
 62
     7
 48
0.125
100
AcDbVertex
100
AcDb2dVertex
 10
-2.238425
 20
0.354473
 30
0.0
 40
0.0
 41
0.0
  0
VERTEX
  5
276
100
AcDbEntity
  8
2
  6
CONTINUOUS
 62
     7
 48
0.125
100
AcDbVertex
100
AcDb2dVertex
 10
-2.238425
 20
-0.361063
 30
0.0
 40
0.0
 41
0.0
  0
SEQEND
  5
277
100
AcDbEntity
  8
0
  0
POLYLINE
  5
278
100
AcDbEntity
  8
2
  6
CONTINUOUS
 62
     7
 48
0.125
100
AcDb2dPolyline
 66
     1
 10
0.0
 20
0.0
 30
0.0
 70
   128
  0
VERTEX
  5
279
100
AcDbEntity
  8
2
  6
CONTINUOUS
 62
     7
 48
0.125
100
AcDbVertex
100
AcDb2dVertex
 10
2.148983
 20
0.354473
 30
0.0
 40
0.0
 41
0.0
  0
VERTEX
  5
27A
100
AcDbEntity
  8
2
  6
CONTINUOUS
 62
     7
 48
0.125
100
AcDbVertex
100
AcDb2dVertex
 10
2.237849
 20
0.354473
 30
0.0
 40
0.0
 41
0.0
  0
SEQEND
  5
27B
100
AcDbEntity
  8
0
  0
POLYLINE
  5
27C
100
AcDbEntity
  8
2
  6
CONTINUOUS
 62
     7
 48
0.125
100
AcDb2dPolyline
 66
     1
 10
0.0
 20
0.0
 30
0.0
 70
   128
  0
VERTEX
  5
27D
100
AcDbEntity
  8
2
  6
CONTINUOUS
 62
     7
 48
0.125
100
AcDbVertex
100
AcDb2dVertex
 10
-1.95703
 20
0.354473
 30
0.0
 40
0.0
 41
0.0
  0
VERTEX
  5
27E
100
AcDbEntity
  8
2
  6
CONTINUOUS
 62
     7
 48
0.125
100
AcDbVertex
100
AcDb2dVertex
 10
-1.95703
 20
-0.361063
 30
0.0
 40
0.0
 41
0.0
  0
SEQEND
  5
27F
100
AcDbEntity
  8
0
  0
POLYLINE
  5
280
100
AcDbEntity
  8
2
  6
CONTINUOUS
 62
     7
 48
0.125
100
AcDb2dPolyline
 66
     1
 10
0.0
 20
0.0
 30
0.0
 70
   128
  0
VERTEX
  5
281
100
AcDbEntity
  8
2
  6
CONTINUOUS
 62
     7
 48
0.125
100
AcDbVertex
100
AcDb2dVertex
 10
2.034279
 20
0.064953
 30
0.0
 40
0.0
 41
0.0
  0
VERTEX
  5
282
100
AcDbEntity
  8
2
  6
CONTINUOUS
 62
     7
 48
0.125
100
AcDbVertex
100
AcDb2dVertex
 10
2.034279
 20
-0.361063
 30
0.0
 40
0.0
 41
0.0
  0
SEQEND
  5
283
100
AcDbEntity
  8
0
  0
POLYLINE
  5
284
100
AcDbEntity
  8
2
  6
CONTINUOUS
 62
     7
 48
0.125
100
AcDb2dPolyline
 66
     1
 10
0.0
 20
0.0
 30
0.0
 70
   128
  0
VERTEX
  5
285
100
AcDbEntity
  8
2
  6
CONTINUOUS
 62
     7
 48
0.125
100
AcDbVertex
100
AcDb2dVertex
 10
2.034279
 20
0.064953
 30
0.0
 40
0.0
 41
0.0
  0
VERTEX
  5
286
100
AcDbEntity
  8
2
  6
CONTINUOUS
 62
     7
 48
0.125
100
AcDbVertex
100
AcDb2dVertex
 10
2.148983
 20
-0.361063
 30
0.0
 40
0.0
 41
0.0
  0
SEQEND
  5
287
100
AcDbEntity
  8
0
  0
POLYLINE
  5
288
100
AcDbEntity
  8
2
  6
CONTINUOUS
 62
     7
 48
0.125
100
AcDb2dPolyline
 66
     1
 10
0.0
 20
0.0
 30
0.0
 70
   128
  0
VERTEX
  5
289
100
AcDbEntity
  8
2
  6
CONTINUOUS
 62
     7
 48
0.125
100
AcDbVertex
100
AcDb2dVertex
 10
2.148983
 20
0.354473
 30
0.0
 40
0.0
 41
0.0
  0
VERTEX
  5
28A
100
AcDbEntity
  8
2
  6
CONTINUOUS
 62
     7
 48
0.125
100
AcDbVertex
100
AcDb2dVertex
 10
2.148983
 20
-0.019262
 30
0.0
 40
0.0
 41
0.0
  0
SEQEND
  5
28B
100
AcDbEntity
  8
0
  0
POLYLINE
  5
28C
100
AcDbEntity
  8
2
  6
CONTINUOUS
 62
     7
 48
0.125
100
AcDb2dPolyline
 66
     1
 10
0.0
 20
0.0
 30
0.0
 70
   128
  0
VERTEX
  5
28D
100
AcDbEntity
  8
2
  6
CONTINUOUS
 62
     7
 48
0.125
100
AcDbVertex
100
AcDb2dVertex
 10
2.048355
 20
0.354473
 30
0.0
 40
0.0
 41
0.0
  0
VERTEX
  5
28E
100
AcDbEntity
  8
2
  6
CONTINUOUS
 62
     7
 48
0.125
100
AcDbVertex
100
AcDb2dVertex
 10
2.148983
 20
-0.019262
 30
0.0
 40
0.0
 41
0.0
  0
SEQEND
  5
28F
100
AcDbEntity
  8
0
  0
POLYLINE
  5
290
100
AcDbEntity
  8
2
  6
CONTINUOUS
 62
     7
 48
0.125
100
AcDb2dPolyline
 66
     1
 10
0.0
 20
0.0
 30
0.0
 70
   128
  0
VERTEX
  5
291
100
AcDbEntity
  8
2
  6
CONTINUOUS
 62
     7
 48
0.125
100
AcDbVertex
100
AcDb2dVertex
 10
2.148983
 20
-0.361063
 30
0.0
 40
0.0
 41
0.0
  0
VERTEX
  5
292
100
AcDbEntity
  8
2
  6
CONTINUOUS
 62
     7
 48
0.125
100
AcDbVertex
100
AcDb2dVertex
 10
2.237849
 20
-0.361063
 30
0.0
 40
0.0
 41
0.0
  0
SEQEND
  5
293
100
AcDbEntity
  8
0
  0
POLYLINE
  5
294
100
AcDbEntity
  8
2
  6
CONTINUOUS
 62
     7
 48
0.125
100
AcDb2dPolyline
 66
     1
 10
0.0
 20
0.0
 30
0.0
 70
   128
  0
VERTEX
  5
295
100
AcDbEntity
  8
2
  6
CONTINUOUS
 62
     7
 48
0.125
100
AcDbVertex
100
AcDb2dVertex
 10
2.237849
 20
0.354473
 30
0.0
 40
0.0
 41
0.0
  0
VERTEX
  5
296
100
AcDbEntity
  8
2
  6
CONTINUOUS
 62
     7
 48
0.125
100
AcDbVertex
100
AcDb2dVertex
 10
2.237849
 20
-0.361063
 30
0.0
 40
0.0
 41
0.0
  0
SEQEND
  5
297
100
AcDbEntity
  8
0
  0
POLYLINE
  5
298
100
AcDbEntity
  8
2
  6
CONTINUOUS
 62
     7
 48
0.125
100
AcDb2dPolyline
 66
     1
 10
0.0
 20
0.0
 30
0.0
 70
   128
  0
VERTEX
  5
299
100
AcDbEntity
  8
2
  6
CONTINUOUS
 62
     7
 48
0.125
100
AcDbVertex
100
AcDb2dVertex
 10
1.945413
 20
0.354473
 30
0.0
 40
0.0
 41
0.0
  0
VERTEX
  5
29A
100
AcDbEntity
  8
2
  6
CONTINUOUS
 62
     7
 48
0.125
100
AcDbVertex
100
AcDb2dVertex
 10
1.945413
 20
-0.361063
 30
0.0
 40
0.0
 41
0.0
  0
SEQEND
  5
29B
100
AcDbEntity
  8
0
  0
ARC
  5
29C
100
AcDbEntity
  8
2
  6
CONTINUOUS
 62
     7
 48
0.125
100
AcDbCircle
 10
1.748314
 20
-0.21853
 30
0.0
 40
0.04396
100
AcDbArc
 50
270.0
 51
0.0
  0
ARC
  5
29D
100
AcDbEntity
  8
2
  6
CONTINUOUS
 62
     7
 48
0.125
100
AcDbCircle
 10
1.742175
 20
-0.21853
 30
0.0
 40
0.04396
100
AcDbArc
 50
180.0
 51
270.0
  0
ARC
  5
29E
100
AcDbEntity
  8
2
  6
CONTINUOUS
 62
     7
 48
0.125
100
AcDbCircle
 10
1.742175
 20
0.231357
 30
0.0
 40
0.04396
100
AcDbArc
 50
90.0
 51
180.0
  0
ARC
  5
29F
100
AcDbEntity
  8
2
  6
CONTINUOUS
 62
     7
 48
0.125
100
AcDbCircle
 10
1.748314
 20
0.231357
 30
0.0
 40
0.04396
100
AcDbArc
 50
0.0
 51
90.0
  0
ARC
  5
2A0
100
AcDbEntity
  8
2
  6
CONTINUOUS
 62
     7
 48
0.125
100
AcDbCircle
 10
1.762956
 20
-0.242891
 30
0.0
 40
0.118172
100
AcDbArc
 50
270.0
 51
0.0
  0
ARC
  5
2A1
100
AcDbEntity
  8
2
  6
CONTINUOUS
 62
     7
 48
0.125
100
AcDbCircle
 10
1.727522
 20
-0.242891
 30
0.0
 40
0.118172
100
AcDbArc
 50
180.0
 51
270.0
  0
ARC
  5
2A2
100
AcDbEntity
  8
2
  6
CONTINUOUS
 62
     7
 48
0.125
100
AcDbCircle
 10
1.727522
 20
0.236302
 30
0.0
 40
0.118172
100
AcDbArc
 50
90.0
 51
180.0
  0
ARC
  5
2A3
100
AcDbEntity
  8
2
  6
CONTINUOUS
 62
     7
 48
0.125
100
AcDbCircle
 10
1.762956
 20
0.236302
 30
0.0
 40
0.118172
100
AcDbArc
 50
0.0
 51
90.0
  0
ARC
  5
2A4
100
AcDbEntity
  8
2
  6
CONTINUOUS
 62
     7
 48
0.125
100
AcDbCircle
 10
1.415696
 20
0.218908
 30
0.0
 40
0.047269
100
AcDbArc
 50
0.0
 51
90.0
  0
ARC
  5
2A5
100
AcDbEntity
  8
2
  6
CONTINUOUS
 62
     7
 48
0.125
100
AcDbCircle
 10
1.433903
 20
0.236302
 30
0.0
 40
0.118172
100
AcDbArc
 50
0.0
 51
90.0
  0
ARC
  5
2A6
100
AcDbEntity
  8
2
  6
CONTINUOUS
 62
     7
 48
0.125
100
AcDbCircle
 10
1.402752
 20
0.218908
 30
0.0
 40
0.047269
100
AcDbArc
 50
90.0
 51
180.0
  0
ARC
  5
2A7
100
AcDbEntity
  8
2
  6
CONTINUOUS
 62
     7
 48
0.125
100
AcDbCircle
 10
1.385047
 20
0.236302
 30
0.0
 40
0.118172
100
AcDbArc
 50
90.0
 51
180.0
  0
ARC
  5
2A8
100
AcDbEntity
  8
2
  6
CONTINUOUS
 62
     7
 48
0.125
100
AcDbCircle
 10
1.402752
 20
0.092198
 30
0.0
 40
0.047269
100
AcDbArc
 50
180.0
 51
232.939567
  0
ARC
  5
2A9
100
AcDbEntity
  8
2
  6
CONTINUOUS
 62
     7
 48
0.125
100
AcDbCircle
 10
1.385047
 20
0.083078
 30
0.0
 40
0.118172
100
AcDbArc
 50
180.0
 51
232.939563
  0
ARC
  5
2AA
100
AcDbEntity
  8
2
  6
CONTINUOUS
 62
     7
 48
0.125
100
AcDbCircle
 10
1.433903
 20
-0.138647
 30
0.0
 40
0.118172
100
AcDbArc
 50
0.0
 51
52.939563
  0
ARC
  5
2AB
100
AcDbEntity
  8
2
  6
CONTINUOUS
 62
     7
 48
0.125
100
AcDbCircle
 10
1.415696
 20
-0.147387
 30
0.0
 40
0.047269
100
AcDbArc
 50
0.0
 51
52.939564
  0
ARC
  5
2AC
100
AcDbEntity
  8
2
  6
CONTINUOUS
 62
     7
 48
0.125
100
AcDbCircle
 10
1.415696
 20
-0.224944
 30
0.0
 40
0.047269
100
AcDbArc
 50
270.0
 51
0.0
  0
ARC
  5
2AD
100
AcDbEntity
  8
2
  6
CONTINUOUS
 62
     7
 48
0.125
100
AcDbCircle
 10
1.402752
 20
-0.224944
 30
0.0
 40
0.047269
100
AcDbArc
 50
180.0
 51
270.0
  0
ARC
  5
2AE
100
AcDbEntity
  8
2
  6
CONTINUOUS
 62
     7
 48
0.125
100
AcDbCircle
 10
1.433903
 20
-0.242891
 30
0.0
 40
0.118172
100
AcDbArc
 50
270.0
 51
0.0
  0
ARC
  5
2AF
100
AcDbEntity
  8
2
  6
CONTINUOUS
 62
     7
 48
0.125
100
AcDbCircle
 10
1.385047
 20
-0.242891
 30
0.0
 40
0.118172
100
AcDbArc
 50
180.0
 51
270.0
  0
ARC
  5
2B0
100
AcDbEntity
  8
2
  6
CONTINUOUS
 62
     7
 48
0.125
100
AcDbCircle
 10
1.072519
 20
0.228048
 30
0.0
 40
0.047269
100
AcDbArc
 50
0.0
 51
90.0
  0
ARC
  5
2B1
100
AcDbEntity
  8
2
  6
CONTINUOUS
 62
     7
 48
0.125
100
AcDbCircle
 10
1.072519
 20
-0.215221
 30
0.0
 40
0.047269
100
AcDbArc
 50
270.0
 51
0.0
  0
ARC
  5
2B2
100
AcDbEntity
  8
2
  6
CONTINUOUS
 62
     7
 48
0.125
100
AcDbCircle
 10
1.119788
 20
0.265608
 30
0.0
 40
0.088865
100
AcDbArc
 50
0.0
 51
90.0
  0
ARC
  5
2B3
100
AcDbEntity
  8
2
  6
CONTINUOUS
 62
     7
 48
0.125
100
AcDbCircle
 10
1.119789
 20
-0.272198
 30
0.0
 40
0.088865
100
AcDbArc
 50
270.0
 51
0.0
  0
ARC
  5
2B4
100
AcDbEntity
  8
2
  6
CONTINUOUS
 62
     7
 48
0.125
100
AcDbCircle
 10
-0.041092
 20
-0.224927
 30
0.0
 40
0.046774
100
AcDbArc
 50
270.0
 51
0.0
  0
ARC
  5
2B5
100
AcDbEntity
  8
2
  6
CONTINUOUS
 62
     7
 48
0.125
100
AcDbCircle
 10
-0.041587
 20
0.218342
 30
0.0
 40
0.047269
100
AcDbArc
 50
0.0
 51
90.0
  0
ARC
  5
2B6
100
AcDbEntity
  8
2
  6
CONTINUOUS
 62
     7
 48
0.125
100
AcDbCircle
 10
0.005686
 20
-0.272198
 30
0.0
 40
0.088865
100
AcDbArc
 50
270.0
 51
0.0
  0
ARC
  5
2B7
100
AcDbEntity
  8
2
  6
CONTINUOUS
 62
     7
 48
0.125
100
AcDbCircle
 10
0.005686
 20
0.265608
 30
0.0
 40
0.088865
100
AcDbArc
 50
0.0
 51
90.0
  0
ARC
  5
2B8
100
AcDbEntity
  8
2
  6
CONTINUOUS
 62
     7
 48
0.125
100
AcDbCircle
 10
-1.432945
 20
0.102537
 30
0.0
 40
0.059086
100
AcDbArc
 50
270.0
 51
0.0
  0
ARC
  5
2B9
100
AcDbEntity
  8
2
  6
CONTINUOUS
 62
     7
 48
0.125
100
AcDbCircle
 10
-1.432945
 20
0.206522
 30
0.0
 40
0.059086
100
AcDbArc
 50
0.0
 51
90.0
  0
ARC
  5
2BA
100
AcDbEntity
  8
2
  6
CONTINUOUS
 62
     7
 48
0.125
100
AcDbCircle
 10
-1.37386
 20
-0.110644
 30
0.0
 40
0.088865
100
AcDbArc
 50
0.0
 51
90.0
  0
ARC
  5
2BB
100
AcDbEntity
  8
2
  6
CONTINUOUS
 62
     7
 48
0.125
100
AcDbCircle
 10
-1.37386
 20
0.067086
 30
0.0
 40
0.088865
100
AcDbArc
 50
270.0
 51
0.0
  0
ARC
  5
2BC
100
AcDbEntity
  8
2
  6
CONTINUOUS
 62
     7
 48
0.125
100
AcDbCircle
 10
-1.462725
 20
-0.171148
 30
0.0
 40
0.088865
100
AcDbArc
 50
0.0
 51
90.0
  0
ARC
  5
2BD
100
AcDbEntity
  8
2
  6
CONTINUOUS
 62
     7
 48
0.125
100
AcDbCircle
 10
-1.37386
 20
0.265608
 30
0.0
 40
0.088865
100
AcDbArc
 50
0.0
 51
90.0
  0
POLYLINE
  5
2BE
100
AcDbEntity
  8
2
  6
CONTINUOUS
 62
     7
 48
0.125
100
AcDb2dPolyline
 66
     1
 10
0.0
 20
0.0
 30
0.0
 70
   128
  0
VERTEX
  5
2BF
100
AcDbEntity
  8
2
  6
CONTINUOUS
 62
     7
 48
0.125
100
AcDbVertex
100
AcDb2dVertex
 10
-0.842993
 20
0.715138
 30
0.0
 40
0.0
 41
0.0
  0
VERTEX
  5
2C0
100
AcDbEntity
  8
2
  6
CONTINUOUS
 62
     7
 48
0.125
100
AcDbVertex
100
AcDb2dVertex
 10
-0.754974
 20
0.715138
 30
0.0
 40
0.0
 41
0.0
  0
SEQEND
  5
2C1
100
AcDbEntity
  8
0
  0
POLYLINE
  5
2C2
100
AcDbEntity
  8
2
  6
CONTINUOUS
 62
     7
 48
0.125
100
AcDb2dPolyline
 66
     1
 10
0.0
 20
0.0
 30
0.0
 70
   128
  0
VERTEX
  5
2C3
100
AcDbEntity
  8
2
  6
CONTINUOUS
 62
     7
 48
0.125
100
AcDbVertex
100
AcDb2dVertex
 10
-1.149128
 20
0.715138
 30
0.0
 40
0.0
 41
0.0
  0
VERTEX
  5
2C4
100
AcDbEntity
  8
2
  6
CONTINUOUS
 62
     7
 48
0.125
100
AcDbVertex
100
AcDb2dVertex
 10
-1.059119
 20
0.715138
 30
0.0
 40
0.0
 41
0.0
  0
SEQEND
  5
2C5
100
AcDbEntity
  8
0
  0
POLYLINE
  5
2C6
100
AcDbEntity
  8
2
  6
CONTINUOUS
 62
     7
 48
0.125
100
AcDb2dPolyline
 66
     1
 10
0.0
 20
0.0
 30
0.0
 70
   128
  0
VERTEX
  5
2C7
100
AcDbEntity
  8
2
  6
CONTINUOUS
 62
     7
 48
0.125
100
AcDbVertex
100
AcDb2dVertex
 10
-0.842993
 20
0.715138
 30
0.0
 40
0.0
 41
0.0
  0
VERTEX
  5
2C8
100
AcDbEntity
  8
2
  6
CONTINUOUS
 62
     7
 48
0.125
100
AcDbVertex
100
AcDb2dVertex
 10
-0.842993
 20
0.93057
 30
0.0
 40
0.0
 41
0.0
  0
SEQEND
  5
2C9
100
AcDbEntity
  8
0
  0
POLYLINE
  5
2CA
100
AcDbEntity
  8
2
  6
CONTINUOUS
 62
     7
 48
0.125
100
AcDb2dPolyline
 66
     1
 10
0.0
 20
0.0
 30
0.0
 70
   128
  0
VERTEX
  5
2CB
100
AcDbEntity
  8
2
  6
CONTINUOUS
 62
     7
 48
0.125
100
AcDbVertex
100
AcDb2dVertex
 10
-1.059119
 20
0.715138
 30
0.0
 40
0.0
 41
0.0
  0
VERTEX
  5
2CC
100
AcDbEntity
  8
2
  6
CONTINUOUS
 62
     7
 48
0.125
100
AcDbVertex
100
AcDb2dVertex
 10
-1.059119
 20
0.890863
 30
0.0
 40
0.0
 41
0.0
  0
SEQEND
  5
2CD
100
AcDbEntity
  8
0
  0
POLYLINE
  5
2CE
100
AcDbEntity
  8
2
  6
CONTINUOUS
 62
     7
 48
0.125
100
AcDb2dPolyline
 66
     1
 10
0.0
 20
0.0
 30
0.0
 70
   128
  0
VERTEX
  5
2CF
100
AcDbEntity
  8
2
  6
CONTINUOUS
 62
     7
 48
0.125
100
AcDbVertex
100
AcDb2dVertex
 10
-0.870029
 20
0.936557
 30
0.0
 40
0.0
 41
0.0
  0
VERTEX
  5
2D0
100
AcDbEntity
  8
2
  6
CONTINUOUS
 62
     7
 48
0.125
100
AcDbVertex
100
AcDb2dVertex
 10
-0.946152
 20
0.773101
 30
0.0
 40
0.0
 41
0.0
  0
SEQEND
  5
2D1
100
AcDbEntity
  8
0
  0
POLYLINE
  5
2D2
100
AcDbEntity
  8
2
  6
CONTINUOUS
 62
     7
 48
0.125
100
AcDb2dPolyline
 66
     1
 10
0.0
 20
0.0
 30
0.0
 70
   128
  0
VERTEX
  5
2D3
100
AcDbEntity
  8
2
  6
CONTINUOUS
 62
     7
 48
0.125
100
AcDbVertex
100
AcDb2dVertex
 10
-1.032188
 20
0.897068
 30
0.0
 40
0.0
 41
0.0
  0
VERTEX
  5
2D4
100
AcDbEntity
  8
2
  6
CONTINUOUS
 62
     7
 48
0.125
100
AcDbVertex
100
AcDb2dVertex
 10
-0.971758
 20
0.772883
 30
0.0
 40
0.0
 41
0.0
  0
SEQEND
  5
2D5
100
AcDbEntity
  8
0
  0
POLYLINE
  5
2D6
100
AcDbEntity
  8
2
  6
CONTINUOUS
 62
     7
 48
0.125
100
AcDb2dPolyline
 66
     1
 10
0.0
 20
0.0
 30
0.0
 70
   128
  0
VERTEX
  5
2D7
100
AcDbEntity
  8
2
  6
CONTINUOUS
 62
     7
 48
0.125
100
AcDbVertex
100
AcDb2dVertex
 10
-0.851223
 20
1.186689
 30
0.0
 40
0.0
 41
0.0
  0
VERTEX
  5
2D8
100
AcDbEntity
  8
2
  6
CONTINUOUS
 62
     7
 48
0.125
100
AcDbVertex
100
AcDb2dVertex
 10
-0.943893
 20
0.956285
 30
0.0
 40
0.0
 41
0.0
  0
SEQEND
  5
2D9
100
AcDbEntity
  8
0
  0
POLYLINE
  5
2DA
100
AcDbEntity
  8
2
  6
CONTINUOUS
 62
     7
 48
0.125
100
AcDb2dPolyline
 66
     1
 10
0.0
 20
0.0
 30
0.0
 70
   128
  0
VERTEX
  5
2DB
100
AcDbEntity
  8
2
  6
CONTINUOUS
 62
     7
 48
0.125
100
AcDbVertex
100
AcDb2dVertex
 10
-1.049318
 20
1.137052
 30
0.0
 40
0.0
 41
0.0
  0
VERTEX
  5
2DC
100
AcDbEntity
  8
2
  6
CONTINUOUS
 62
     7
 48
0.125
100
AcDbVertex
100
AcDb2dVertex
 10
-0.970034
 20
0.955891
 30
0.0
 40
0.0
 41
0.0
  0
SEQEND
  5
2DD
100
AcDbEntity
  8
0
  0
POLYLINE
  5
2DE
100
AcDbEntity
  8
2
  6
CONTINUOUS
 62
     7
 48
0.125
100
AcDb2dPolyline
 66
     1
 10
0.0
 20
0.0
 30
0.0
 70
   128
  0
VERTEX
  5
2DF
100
AcDbEntity
  8
2
  6
CONTINUOUS
 62
     7
 48
0.125
100
AcDbVertex
100
AcDb2dVertex
 10
-0.373481
 20
1.227615
 30
0.0
 40
0.0
 41
0.0
  0
VERTEX
  5
2E0
100
AcDbEntity
  8
2
  6
CONTINUOUS
 62
     7
 48
0.125
100
AcDbVertex
100
AcDb2dVertex
 10
-0.373481
 20
0.834197
 30
0.0
 40
0.0
 41
0.0
  0
SEQEND
  5
2E1
100
AcDbEntity
  8
0
  0
POLYLINE
  5
2E2
100
AcDbEntity
  8
2
  6
CONTINUOUS
 62
     7
 48
0.125
100
AcDb2dPolyline
 66
     1
 10
0.0
 20
0.0
 30
0.0
 70
   128
  0
VERTEX
  5
2E3
100
AcDbEntity
  8
2
  6
CONTINUOUS
 62
     7
 48
0.125
100
AcDbVertex
100
AcDb2dVertex
 10
-0.501258
 20
0.80497
 30
0.0
 40
0.0
 41
0.0
  0
VERTEX
  5
2E4
100
AcDbEntity
  8
2
  6
CONTINUOUS
 62
     7
 48
0.125
100
AcDbVertex
100
AcDb2dVertex
 10
-0.402708
 20
0.80497
 30
0.0
 40
0.0
 41
0.0
  0
SEQEND
  5
2E5
100
AcDbEntity
  8
0
  0
POLYLINE
  5
2E6
100
AcDbEntity
  8
2
  6
CONTINUOUS
 62
     7
 48
0.125
100
AcDb2dPolyline
 66
     1
 10
0.0
 20
0.0
 30
0.0
 70
   128
  0
VERTEX
  5
2E7
100
AcDbEntity
  8
2
  6
CONTINUOUS
 62
     7
 48
0.125
100
AcDbVertex
100
AcDb2dVertex
 10
-0.620316
 20
1.211536
 30
0.0
 40
0.0
 41
0.0
  0
VERTEX
  5
2E8
100
AcDbEntity
  8
2
  6
CONTINUOUS
 62
     7
 48
0.125
100
AcDbVertex
100
AcDb2dVertex
 10
-0.620316
 20
0.817871
 30
0.0
 40
0.0
 41
0.0
  0
SEQEND
  5
2E9
100
AcDbEntity
  8
0
  0
POLYLINE
  5
2EA
100
AcDbEntity
  8
2
  6
CONTINUOUS
 62
     7
 48
0.125
100
AcDb2dPolyline
 66
     1
 10
0.0
 20
0.0
 30
0.0
 70
   128
  0
VERTEX
  5
2EB
100
AcDbEntity
  8
2
  6
CONTINUOUS
 62
     7
 48
0.125
100
AcDbVertex
100
AcDb2dVertex
 10
-0.517584
 20
0.715138
 30
0.0
 40
0.0
 41
0.0
  0
VERTEX
  5
2EC
100
AcDbEntity
  8
2
  6
CONTINUOUS
 62
     7
 48
0.125
100
AcDbVertex
100
AcDb2dVertex
 10
-0.386382
 20
0.715138
 30
0.0
 40
0.0
 41
0.0
  0
SEQEND
  5
2ED
100
AcDbEntity
  8
0
  0
POLYLINE
  5
2EE
100
AcDbEntity
  8
2
  6
CONTINUOUS
 62
     7
 48
0.125
100
AcDb2dPolyline
 66
     1
 10
0.0
 20
0.0
 30
0.0
 70
   128
  0
VERTEX
  5
2EF
100
AcDbEntity
  8
2
  6
CONTINUOUS
 62
     7
 48
0.125
100
AcDbVertex
100
AcDb2dVertex
 10
-0.283649
 20
1.25398
 30
0.0
 40
0.0
 41
0.0
  0
VERTEX
  5
2F0
100
AcDbEntity
  8
2
  6
CONTINUOUS
 62
     7
 48
0.125
100
AcDbVertex
100
AcDb2dVertex
 10
-0.283649
 20
0.817871
 30
0.0
 40
0.0
 41
0.0
  0
SEQEND
  5
2F1
100
AcDbEntity
  8
0
  0
POLYLINE
  5
2F2
100
AcDbEntity
  8
2
  6
CONTINUOUS
 62
     7
 48
0.125
100
AcDb2dPolyline
 66
     1
 10
0.0
 20
0.0
 30
0.0
 70
   128
  0
VERTEX
  5
2F3
100
AcDbEntity
  8
2
  6
CONTINUOUS
 62
     7
 48
0.125
100
AcDbVertex
100
AcDb2dVertex
 10
-0.048999
 20
0.715138
 30
0.0
 40
0.0
 41
0.0
  0
VERTEX
  5
2F4
100
AcDbEntity
  8
2
  6
CONTINUOUS
 62
     7
 48
0.125
100
AcDbVertex
100
AcDb2dVertex
 10
0.048999
 20
0.715138
 30
0.0
 40
0.0
 41
0.0
  0
SEQEND
  5
2F5
100
AcDbEntity
  8
0
  0
POLYLINE
  5
2F6
100
AcDbEntity
  8
2
  6
CONTINUOUS
 62
     7
 48
0.125
100
AcDb2dPolyline
 66
     1
 10
0.0
 20
0.0
 30
0.0
 70
   128
  0
VERTEX
  5
2F7
100
AcDbEntity
  8
2
  6
CONTINUOUS
 62
     7
 48
0.125
100
AcDbVertex
100
AcDb2dVertex
 10
0.237267
 20
1.36742
 30
0.0
 40
0.0
 41
0.0
  0
VERTEX
  5
2F8
100
AcDbEntity
  8
2
  6
CONTINUOUS
 62
     7
 48
0.125
100
AcDbVertex
100
AcDb2dVertex
 10
0.237267
 20
1.424562
 30
0.0
 40
0.0
 41
0.0
  0
SEQEND
  5
2F9
100
AcDbEntity
  8
0
  0
POLYLINE
  5
2FA
100
AcDbEntity
  8
2
  6
CONTINUOUS
 62
     7
 48
0.125
100
AcDb2dPolyline
 66
     1
 10
0.0
 20
0.0
 30
0.0
 70
   128
  0
VERTEX
  5
2FB
100
AcDbEntity
  8
2
  6
CONTINUOUS
 62
     7
 48
0.125
100
AcDbVertex
100
AcDb2dVertex
 10
-0.237109
 20
1.367501
 30
0.0
 40
0.0
 41
0.0
  0
VERTEX
  5
2FC
100
AcDbEntity
  8
2
  6
CONTINUOUS
 62
     7
 48
0.125
100
AcDbVertex
100
AcDb2dVertex
 10
-0.237109
 20
1.424253
 30
0.0
 40
0.0
 41
0.0
  0
SEQEND
  5
2FD
100
AcDbEntity
  8
0
  0
POLYLINE
  5
2FE
100
AcDbEntity
  8
2
  6
CONTINUOUS
 62
     7
 48
0.125
100
AcDb2dPolyline
 66
     1
 10
0.0
 20
0.0
 30
0.0
 70
   128
  0
VERTEX
  5
2FF
100
AcDbEntity
  8
2
  6
CONTINUOUS
 62
     7
 48
0.125
100
AcDbVertex
100
AcDb2dVertex
 10
0.379955
 20
1.224902
 30
0.0
 40
0.0
 41
0.0
  0
VERTEX
  5
300
100
AcDbEntity
  8
2
  6
CONTINUOUS
 62
     7
 48
0.125
100
AcDbVertex
100
AcDb2dVertex
 10
0.379955
 20
0.834197
 30
0.0
 40
0.0
 41
0.0
  0
SEQEND
  5
301
100
AcDbEntity
  8
0
  0
POLYLINE
  5
302
100
AcDbEntity
  8
2
  6
CONTINUOUS
 62
     7
 48
0.125
100
AcDb2dPolyline
 66
     1
 10
0.0
 20
0.0
 30
0.0
 70
   128
  0
VERTEX
  5
303
100
AcDbEntity
  8
2
  6
CONTINUOUS
 62
     7
 48
0.125
100
AcDbVertex
100
AcDb2dVertex
 10
0.53696
 20
0.834197
 30
0.0
 40
0.0
 41
0.0
  0
VERTEX
  5
304
100
AcDbEntity
  8
2
  6
CONTINUOUS
 62
     7
 48
0.125
100
AcDbVertex
100
AcDb2dVertex
 10
0.53696
 20
1.185453
 30
0.0
 40
0.0
 41
0.0
  0
SEQEND
  5
305
100
AcDbEntity
  8
0
  0
POLYLINE
  5
306
100
AcDbEntity
  8
2
  6
CONTINUOUS
 62
     7
 48
0.125
100
AcDb2dPolyline
 66
     1
 10
0.0
 20
0.0
 30
0.0
 70
   128
  0
VERTEX
  5
307
100
AcDbEntity
  8
2
  6
CONTINUOUS
 62
     7
 48
0.125
100
AcDbVertex
100
AcDb2dVertex
 10
0.409182
 20
0.80497
 30
0.0
 40
0.0
 41
0.0
  0
VERTEX
  5
308
100
AcDbEntity
  8
2
  6
CONTINUOUS
 62
     7
 48
0.125
100
AcDbVertex
100
AcDb2dVertex
 10
0.507732
 20
0.80497
 30
0.0
 40
0.0
 41
0.0
  0
SEQEND
  5
309
100
AcDbEntity
  8
0
  0
POLYLINE
  5
30A
100
AcDbEntity
  8
2
  6
CONTINUOUS
 62
     7
 48
0.125
100
AcDb2dPolyline
 66
     1
 10
0.0
 20
0.0
 30
0.0
 70
   128
  0
VERTEX
  5
30B
100
AcDbEntity
  8
2
  6
CONTINUOUS
 62
     7
 48
0.125
100
AcDbVertex
100
AcDb2dVertex
 10
0.392856
 20
0.715138
 30
0.0
 40
0.0
 41
0.0
  0
VERTEX
  5
30C
100
AcDbEntity
  8
2
  6
CONTINUOUS
 62
     7
 48
0.125
100
AcDbVertex
100
AcDb2dVertex
 10
0.524058
 20
0.715138
 30
0.0
 40
0.0
 41
0.0
  0
SEQEND
  5
30D
100
AcDbEntity
  8
0
  0
POLYLINE
  5
30E
100
AcDbEntity
  8
2
  6
CONTINUOUS
 62
     7
 48
0.125
100
AcDb2dPolyline
 66
     1
 10
0.0
 20
0.0
 30
0.0
 70
   128
  0
VERTEX
  5
30F
100
AcDbEntity
  8
2
  6
CONTINUOUS
 62
     7
 48
0.125
100
AcDbVertex
100
AcDb2dVertex
 10
1.057305
 20
0.715138
 30
0.0
 40
0.0
 41
0.0
  0
VERTEX
  5
310
100
AcDbEntity
  8
2
  6
CONTINUOUS
 62
     7
 48
0.125
100
AcDbVertex
100
AcDb2dVertex
 10
1.150737
 20
0.715138
 30
0.0
 40
0.0
 41
0.0
  0
SEQEND
  5
311
100
AcDbEntity
  8
0
  0
POLYLINE
  5
312
100
AcDbEntity
  8
2
  6
CONTINUOUS
 62
     7
 48
0.125
100
AcDb2dPolyline
 66
     1
 10
0.0
 20
0.0
 30
0.0
 70
   128
  0
VERTEX
  5
313
100
AcDbEntity
  8
2
  6
CONTINUOUS
 62
     7
 48
0.125
100
AcDbVertex
100
AcDb2dVertex
 10
0.748785
 20
0.715138
 30
0.0
 40
0.0
 41
0.0
  0
VERTEX
  5
314
100
AcDbEntity
  8
2
  6
CONTINUOUS
 62
     7
 48
0.125
100
AcDbVertex
100
AcDb2dVertex
 10
0.837667
 20
0.715138
 30
0.0
 40
0.0
 41
0.0
  0
SEQEND
  5
315
100
AcDbEntity
  8
0
  0
POLYLINE
  5
316
100
AcDbEntity
  8
2
  6
CONTINUOUS
 62
     7
 48
0.125
100
AcDb2dPolyline
 66
     1
 10
0.0
 20
0.0
 30
0.0
 70
   128
  0
VERTEX
  5
317
100
AcDbEntity
  8
2
  6
CONTINUOUS
 62
     7
 48
0.125
100
AcDbVertex
100
AcDb2dVertex
 10
0.837667
 20
1.107661
 30
0.0
 40
0.0
 41
0.0
  0
VERTEX
  5
318
100
AcDbEntity
  8
2
  6
CONTINUOUS
 62
     7
 48
0.125
100
AcDbVertex
100
AcDb2dVertex
 10
0.837667
 20
0.985299
 30
0.0
 40
0.0
 41
0.0
  0
SEQEND
  5
319
100
AcDbEntity
  8
0
  0
POLYLINE
  5
31A
100
AcDbEntity
  8
2
  6
CONTINUOUS
 62
     7
 48
0.125
100
AcDb2dPolyline
 66
     1
 10
0.0
 20
0.0
 30
0.0
 70
   128
  0
VERTEX
  5
31B
100
AcDbEntity
  8
2
  6
CONTINUOUS
 62
     7
 48
0.125
100
AcDbVertex
100
AcDb2dVertex
 10
0.964993
 20
0.985299
 30
0.0
 40
0.0
 41
0.0
  0
VERTEX
  5
31C
100
AcDbEntity
  8
2
  6
CONTINUOUS
 62
     7
 48
0.125
100
AcDbVertex
100
AcDb2dVertex
 10
0.837667
 20
0.985299
 30
0.0
 40
0.0
 41
0.0
  0
SEQEND
  5
31D
100
AcDbEntity
  8
0
  0
POLYLINE
  5
31E
100
AcDbEntity
  8
2
  6
CONTINUOUS
 62
     7
 48
0.125
100
AcDb2dPolyline
 66
     1
 10
0.0
 20
0.0
 30
0.0
 70
   128
  0
VERTEX
  5
31F
100
AcDbEntity
  8
2
  6
CONTINUOUS
 62
     7
 48
0.125
100
AcDbVertex
100
AcDb2dVertex
 10
0.913266
 20
0.899253
 30
0.0
 40
0.0
 41
0.0
  0
VERTEX
  5
320
100
AcDbEntity
  8
2
  6
CONTINUOUS
 62
     7
 48
0.125
100
AcDbVertex
100
AcDb2dVertex
 10
0.837667
 20
0.899253
 30
0.0
 40
0.0
 41
0.0
  0
SEQEND
  5
321
100
AcDbEntity
  8
0
  0
POLYLINE
  5
322
100
AcDbEntity
  8
2
  6
CONTINUOUS
 62
     7
 48
0.125
100
AcDb2dPolyline
 66
     1
 10
0.0
 20
0.0
 30
0.0
 70
   128
  0
VERTEX
  5
323
100
AcDbEntity
  8
2
  6
CONTINUOUS
 62
     7
 48
0.125
100
AcDbVertex
100
AcDb2dVertex
 10
0.837667
 20
0.715138
 30
0.0
 40
0.0
 41
0.0
  0
VERTEX
  5
324
100
AcDbEntity
  8
2
  6
CONTINUOUS
 62
     7
 48
0.125
100
AcDbVertex
100
AcDb2dVertex
 10
0.837667
 20
0.899253
 30
0.0
 40
0.0
 41
0.0
  0
SEQEND
  5
325
100
AcDbEntity
  8
0
  0
POLYLINE
  5
326
100
AcDbEntity
  8
2
  6
CONTINUOUS
 62
     7
 48
0.125
100
AcDb2dPolyline
 66
     1
 10
0.0
 20
0.0
 30
0.0
 70
   128
  0
VERTEX
  5
327
100
AcDbEntity
  8
2
  6
CONTINUOUS
 62
     7
 48
0.125
100
AcDbVertex
100
AcDb2dVertex
 10
0.979908
 20
0.859381
 30
0.0
 40
0.0
 41
0.0
  0
VERTEX
  5
328
100
AcDbEntity
  8
2
  6
CONTINUOUS
 62
     7
 48
0.125
100
AcDbVertex
100
AcDb2dVertex
 10
1.057305
 20
0.715138
 30
0.0
 40
0.0
 41
0.0
  0
SEQEND
  5
329
100
AcDbEntity
  8
0
  0
POLYLINE
  5
32A
100
AcDbEntity
  8
2
  6
CONTINUOUS
 62
     7
 48
0.125
100
AcDb2dPolyline
 66
     1
 10
0.0
 20
0.0
 30
0.0
 70
   128
  0
VERTEX
  5
32B
100
AcDbEntity
  8
2
  6
CONTINUOUS
 62
     7
 48
0.125
100
AcDbVertex
100
AcDb2dVertex
 10
1.062584
 20
0.910673
 30
0.0
 40
0.0
 41
0.0
  0
VERTEX
  5
32C
100
AcDbEntity
  8
2
  6
CONTINUOUS
 62
     7
 48
0.125
100
AcDbVertex
100
AcDb2dVertex
 10
1.150737
 20
0.715138
 30
0.0
 40
0.0
 41
0.0
  0
SEQEND
  5
32D
100
AcDbEntity
  8
0
  0
POLYLINE
  5
32E
100
AcDbEntity
  8
2
  6
CONTINUOUS
 62
     7
 48
0.125
100
AcDb2dPolyline
 66
     1
 10
0.0
 20
0.0
 30
0.0
 70
   128
  0
VERTEX
  5
32F
100
AcDbEntity
  8
2
  6
CONTINUOUS
 62
     7
 48
0.125
100
AcDbVertex
100
AcDb2dVertex
 10
0.748785
 20
1.225406
 30
0.0
 40
0.0
 41
0.0
  0
VERTEX
  5
330
100
AcDbEntity
  8
2
  6
CONTINUOUS
 62
     7
 48
0.125
100
AcDbVertex
100
AcDb2dVertex
 10
0.748785
 20
0.715138
 30
0.0
 40
0.0
 41
0.0
  0
SEQEND
  5
331
100
AcDbEntity
  8
0
  0
POLYLINE
  5
332
100
AcDbEntity
  8
2
  6
CONTINUOUS
 62
     7
 48
0.125
100
AcDb2dPolyline
 66
     1
 10
0.0
 20
0.0
 30
0.0
 70
   128
  0
VERTEX
  5
333
100
AcDbEntity
  8
2
  6
CONTINUOUS
 62
     7
 48
0.125
100
AcDbVertex
100
AcDb2dVertex
 10
0.626791
 20
1.209105
 30
0.0
 40
0.0
 41
0.0
  0
VERTEX
  5
334
100
AcDbEntity
  8
2
  6
CONTINUOUS
 62
     7
 48
0.125
100
AcDbVertex
100
AcDb2dVertex
 10
0.626791
 20
0.817871
 30
0.0
 40
0.0
 41
0.0
  0
SEQEND
  5
335
100
AcDbEntity
  8
0
  0
POLYLINE
  5
336
100
AcDbEntity
  8
2
  6
CONTINUOUS
 62
     7
 48
0.125
100
AcDb2dPolyline
 66
     1
 10
0.0
 20
0.0
 30
0.0
 70
   128
  0
VERTEX
  5
337
100
AcDbEntity
  8
2
  6
CONTINUOUS
 62
     7
 48
0.125
100
AcDbVertex
100
AcDb2dVertex
 10
0.290124
 20
1.251207
 30
0.0
 40
0.0
 41
0.0
  0
VERTEX
  5
338
100
AcDbEntity
  8
2
  6
CONTINUOUS
 62
     7
 48
0.125
100
AcDbVertex
100
AcDb2dVertex
 10
0.290124
 20
0.817871
 30
0.0
 40
0.0
 41
0.0
  0
SEQEND
  5
339
100
AcDbEntity
  8
0
  0
POLYLINE
  5
33A
100
AcDbEntity
  8
2
  6
CONTINUOUS
 62
     7
 48
0.125
100
AcDb2dPolyline
 66
     1
 10
0.0
 20
0.0
 30
0.0
 70
   128
  0
VERTEX
  5
33B
100
AcDbEntity
  8
2
  6
CONTINUOUS
 62
     7
 48
0.125
100
AcDbVertex
100
AcDb2dVertex
 10
0.048999
 20
1.433488
 30
0.0
 40
0.0
 41
0.0
  0
VERTEX
  5
33C
100
AcDbEntity
  8
2
  6
CONTINUOUS
 62
     7
 48
0.125
100
AcDbVertex
100
AcDb2dVertex
 10
0.048999
 20
0.715138
 30
0.0
 40
0.0
 41
0.0
  0
SEQEND
  5
33D
100
AcDbEntity
  8
0
  0
POLYLINE
  5
33E
100
AcDbEntity
  8
2
  6
CONTINUOUS
 62
     7
 48
0.125
100
AcDb2dPolyline
 66
     1
 10
0.0
 20
0.0
 30
0.0
 70
   128
  0
VERTEX
  5
33F
100
AcDbEntity
  8
2
  6
CONTINUOUS
 62
     7
 48
0.125
100
AcDbVertex
100
AcDb2dVertex
 10
-0.048999
 20
0.715138
 30
0.0
 40
0.0
 41
0.0
  0
VERTEX
  5
340
100
AcDbEntity
  8
2
  6
CONTINUOUS
 62
     7
 48
0.125
100
AcDbVertex
100
AcDb2dVertex
 10
-0.048999
 20
1.433488
 30
0.0
 40
0.0
 41
0.0
  0
SEQEND
  5
341
100
AcDbEntity
  8
0
  0
POLYLINE
  5
342
100
AcDbEntity
  8
2
  6
CONTINUOUS
 62
     7
 48
0.125
100
AcDb2dPolyline
 66
     1
 10
0.0
 20
0.0
 30
0.0
 70
   128
  0
VERTEX
  5
343
100
AcDbEntity
  8
2
  6
CONTINUOUS
 62
     7
 48
0.125
100
AcDbVertex
100
AcDb2dVertex
 10
-0.530485
 20
0.834197
 30
0.0
 40
0.0
 41
0.0
  0
VERTEX
  5
344
100
AcDbEntity
  8
2
  6
CONTINUOUS
 62
     7
 48
0.125
100
AcDbVertex
100
AcDb2dVertex
 10
-0.530485
 20
1.18794
 30
0.0
 40
0.0
 41
0.0
  0
SEQEND
  5
345
100
AcDbEntity
  8
0
  0
POLYLINE
  5
346
100
AcDbEntity
  8
2
  6
CONTINUOUS
 62
     7
 48
0.125
100
AcDb2dPolyline
 66
     1
 10
0.0
 20
0.0
 30
0.0
 70
   128
  0
VERTEX
  5
347
100
AcDbEntity
  8
2
  6
CONTINUOUS
 62
     7
 48
0.125
100
AcDbVertex
100
AcDb2dVertex
 10
-0.754974
 20
0.715138
 30
0.0
 40
0.0
 41
0.0
  0
VERTEX
  5
348
100
AcDbEntity
  8
2
  6
CONTINUOUS
 62
     7
 48
0.125
100
AcDbVertex
100
AcDb2dVertex
 10
-0.754974
 20
1.205355
 30
0.0
 40
0.0
 41
0.0
  0
SEQEND
  5
349
100
AcDbEntity
  8
0
  0
POLYLINE
  5
34A
100
AcDbEntity
  8
2
  6
CONTINUOUS
 62
     7
 48
0.125
100
AcDb2dPolyline
 66
     1
 10
0.0
 20
0.0
 30
0.0
 70
   128
  0
VERTEX
  5
34B
100
AcDbEntity
  8
2
  6
CONTINUOUS
 62
     7
 48
0.125
100
AcDbVertex
100
AcDb2dVertex
 10
-1.149128
 20
0.715138
 30
0.0
 40
0.0
 41
0.0
  0
VERTEX
  5
34C
100
AcDbEntity
  8
2
  6
CONTINUOUS
 62
     7
 48
0.125
100
AcDbVertex
100
AcDb2dVertex
 10
-1.149128
 20
1.116804
 30
0.0
 40
0.0
 41
0.0
  0
SEQEND
  5
34D
100
AcDbEntity
  8
0
  0
ARC
  5
34E
100
AcDbEntity
  8
2
  6
CONTINUOUS
 62
     7
 48
0.125
100
AcDbCircle
 10
1.772354
 20
4.48749
 30
0.0
 40
3.418902
100
AcDbArc
 50
252.579317
 51
257.365113
  0
ARC
  5
34F
100
AcDbEntity
  8
2
  6
CONTINUOUS
 62
     7
 48
0.125
100
AcDbCircle
 10
1.772354
 20
4.48749
 30
0.0
 40
3.418902
100
AcDbArc
 50
246.874638
 51
249.477386
  0
ARC
  5
350
100
AcDbEntity
  8
2
  6
CONTINUOUS
 62
     7
 48
0.125
100
AcDbCircle
 10
1.772354
 20
4.48749
 30
0.0
 40
3.506691
100
AcDbArc
 50
240.564228
 51
243.502024
  0
ARC
  5
351
100
AcDbEntity
  8
2
  6
CONTINUOUS
 62
     7
 48
0.125
100
AcDbCircle
 10
1.772354
 20
4.48749
 30
0.0
 40
3.506691
100
AcDbArc
 50
247.323899
 51
249.044053
  0
ARC
  5
352
100
AcDbEntity
  8
2
  6
CONTINUOUS
 62
     7
 48
0.125
100
AcDbCircle
 10
1.772354
 20
4.48749
 30
0.0
 40
3.418902
100
AcDbArc
 50
239.054616
 51
243.186123
  0
ARC
  5
353
100
AcDbEntity
  8
2
  6
CONTINUOUS
 62
     7
 48
0.125
100
AcDbCircle
 10
-1.772354
 20
4.48749
 30
0.0
 40
3.418902
100
AcDbArc
 50
280.654814
 51
282.000493
  0
ARC
  5
354
100
AcDbEntity
  8
2
  6
CONTINUOUS
 62
     7
 48
0.125
100
AcDbCircle
 10
-1.772354
 20
4.48749
 30
0.0
 40
3.418902
100
AcDbArc
 50
285.864598
 51
287.009028
  0
ARC
  5
355
100
AcDbEntity
  8
2
  6
CONTINUOUS
 62
     7
 48
0.125
100
AcDbCircle
 10
-1.772354
 20
4.48749
 30
0.0
 40
3.418902
100
AcDbArc
 50
290.635811
 51
293.240038
  0
ARC
  5
356
100
AcDbEntity
  8
2
  6
CONTINUOUS
 62
     7
 48
0.125
100
AcDbCircle
 10
-1.772354
 20
4.48749
 30
0.0
 40
3.418902
100
AcDbArc
 50
296.823325
 51
300.945384
  0
ARC
  5
357
100
AcDbEntity
  8
2
  6
CONTINUOUS
 62
     7
 48
0.125
100
AcDbCircle
 10
-1.772354
 20
4.48749
 30
0.0
 40
3.506691
100
AcDbArc
 50
291.068333
 51
292.789851
  0
ARC
  5
358
100
AcDbEntity
  8
2
  6
CONTINUOUS
 62
     7
 48
0.125
100
AcDbCircle
 10
-1.772354
 20
4.48749
 30
0.0
 40
3.506691
100
AcDbArc
 50
296.500913
 51
299.435772
  0
ARC
  5
359
100
AcDbEntity
  8
2
  6
CONTINUOUS
 62
     7
 48
0.125
100
AcDbCircle
 10
1.772354
 20
4.48749
 30
0.0
 40
3.506691
100
AcDbArc
 50
254.541294
 51
256.858001
  0
ARC
  5
35A
100
AcDbEntity
  8
2
  6
CONTINUOUS
 62
     7
 48
0.125
100
AcDbCircle
 10
-0.768339
 20
1.205355
 30
0.0
 40
0.013365
100
AcDbArc
 50
0.0
 51
107.009028
  0
ARC
  5
35B
100
AcDbEntity
  8
2
  6
CONTINUOUS
 62
     7
 48
0.125
100
AcDbCircle
 10
-0.832116
 20
1.179004
 30
0.0
 40
0.020594
100
AcDbArc
 50
105.8646
 51
158.089502
  0
ARC
  5
35C
100
AcDbEntity
  8
2
  6
CONTINUOUS
 62
     7
 48
0.125
100
AcDbCircle
 10
-1.059243
 20
1.132709
 30
0.0
 40
0.010834
100
AcDbArc
 50
23.636177
 51
102.000491
  0
ARC
  5
35D
100
AcDbEntity
  8
2
  6
CONTINUOUS
 62
     7
 48
0.125
100
AcDbCircle
 10
-1.138209
 20
1.116804
 30
0.0
 40
0.010919
100
AcDbArc
 50
100.654829
 51
180.0
  0
ARC
  5
35E
100
AcDbEntity
  8
2
  6
CONTINUOUS
 62
     7
 48
0.125
100
AcDbCircle
 10
-1.044939
 20
0.890863
 30
0.0
 40
0.014181
100
AcDbArc
 50
25.947835
 51
180.0
  0
ARC
  5
35F
100
AcDbEntity
  8
2
  6
CONTINUOUS
 62
     7
 48
0.125
100
AcDbCircle
 10
-0.857174
 20
0.93057
 30
0.0
 40
0.014181
100
AcDbArc
 50
0.0
 51
155.027942
  0
ARC
  5
360
100
AcDbEntity
  8
2
  6
CONTINUOUS
 62
     7
 48
0.125
100
AcDbCircle
 10
-0.957046
 20
0.961575
 30
0.0
 40
0.014177
100
AcDbArc
 50
203.636164
 51
338.089511
  0
ARC
  5
361
100
AcDbEntity
  8
2
  6
CONTINUOUS
 62
     7
 48
0.125
100
AcDbCircle
 10
-0.402708
 20
1.227615
 30
0.0
 40
0.029227
100
AcDbArc
 50
0.0
 51
112.78985
  0
ARC
  5
362
100
AcDbEntity
  8
2
  6
CONTINUOUS
 62
     7
 48
0.125
100
AcDbCircle
 10
-0.402708
 20
0.834197
 30
0.0
 40
0.029227
100
AcDbArc
 50
270.0
 51
0.0
  0
ARC
  5
363
100
AcDbEntity
  8
2
  6
CONTINUOUS
 62
     7
 48
0.125
100
AcDbCircle
 10
-0.501258
 20
0.834197
 30
0.0
 40
0.029227
100
AcDbArc
 50
180.0
 51
270.0
  0
ARC
  5
364
100
AcDbEntity
  8
2
  6
CONTINUOUS
 62
     7
 48
0.125
100
AcDbCircle
 10
-0.538666
 20
1.211536
 30
0.0
 40
0.08165
100
AcDbArc
 50
110.635809
 51
180.0
  0
ARC
  5
365
100
AcDbEntity
  8
2
  6
CONTINUOUS
 62
     7
 48
0.125
100
AcDbCircle
 10
-0.517584
 20
0.817871
 30
0.0
 40
0.102733
100
AcDbArc
 50
180.0
 51
270.0
  0
ARC
  5
366
100
AcDbEntity
  8
2
  6
CONTINUOUS
 62
     7
 48
0.125
100
AcDbCircle
 10
-0.386382
 20
0.817871
 30
0.0
 40
0.102733
100
AcDbArc
 50
270.0
 51
0.0
  0
ARC
  5
367
100
AcDbEntity
  8
2
  6
CONTINUOUS
 62
     7
 48
0.125
100
AcDbCircle
 10
-0.383794
 20
1.25398
 30
0.0
 40
0.100145
100
AcDbArc
 50
0.0
 51
113.240038
  0
ARC
  5
368
100
AcDbEntity
  8
2
  6
CONTINUOUS
 62
     7
 48
0.125
100
AcDbCircle
 10
0.0
 20
1.531419
 30
0.0
 40
0.027777
100
AcDbArc
 50
59.054611
 51
120.945389
  0
ARC
  5
369
100
AcDbEntity
  8
2
  6
CONTINUOUS
 62
     7
 48
0.125
100
AcDbCircle
 10
0.224226
 20
1.424562
 30
0.0
 40
0.013041
100
AcDbArc
 50
0.0
 51
63.186129
  0
ARC
  5
36A
100
AcDbEntity
  8
2
  6
CONTINUOUS
 62
     7
 48
0.125
100
AcDbCircle
 10
0.216882
 20
1.36742
 30
0.0
 40
0.020385
100
AcDbArc
 50
243.502021
 51
360.0
  0
ARC
  5
36B
100
AcDbEntity
  8
2
  6
CONTINUOUS
 62
     7
 48
0.125
100
AcDbCircle
 10
-0.216723
 20
1.367501
 30
0.0
 40
0.020386
100
AcDbArc
 50
180.0
 51
296.500915
  0
ARC
  5
36C
100
AcDbEntity
  8
2
  6
CONTINUOUS
 62
     7
 48
0.125
100
AcDbCircle
 10
-0.223436
 20
1.424253
 30
0.0
 40
0.013673
100
AcDbArc
 50
116.82333
 51
180.0
  0
ARC
  5
36D
100
AcDbEntity
  8
2
  6
CONTINUOUS
 62
     7
 48
0.125
100
AcDbCircle
 10
-0.959007
 20
0.779087
 30
0.0
 40
0.014181
100
AcDbArc
 50
205.947842
 51
335.027942
  0
ARC
  5
36E
100
AcDbEntity
  8
2
  6
CONTINUOUS
 62
     7
 48
0.125
100
AcDbCircle
 10
0.507732
 20
1.185453
 30
0.0
 40
0.029227
100
AcDbArc
 50
0.0
 51
69.044052
  0
ARC
  5
36F
100
AcDbEntity
  8
2
  6
CONTINUOUS
 62
     7
 48
0.125
100
AcDbCircle
 10
0.409182
 20
0.834197
 30
0.0
 40
0.029227
100
AcDbArc
 50
180.0
 51
270.0
  0
ARC
  5
370
100
AcDbEntity
  8
2
  6
CONTINUOUS
 62
     7
 48
0.125
100
AcDbCircle
 10
0.507732
 20
0.834197
 30
0.0
 40
0.029227
100
AcDbArc
 50
270.0
 51
0.0
  0
ARC
  5
371
100
AcDbEntity
  8
2
  6
CONTINUOUS
 62
     7
 48
0.125
100
AcDbCircle
 10
0.409182
 20
1.224902
 30
0.0
 40
0.029227
100
AcDbArc
 50
67.323905
 51
180.0
  0
ARC
  5
372
100
AcDbEntity
  8
2
  6
CONTINUOUS
 62
     7
 48
0.125
100
AcDbCircle
 10
0.524058
 20
0.817871
 30
0.0
 40
0.102733
100
AcDbArc
 50
270.0
 51
0.0
  0
ARC
  5
373
100
AcDbEntity
  8
2
  6
CONTINUOUS
 62
     7
 48
0.125
100
AcDbCircle
 10
0.392856
 20
0.817871
 30
0.0
 40
0.102733
100
AcDbArc
 50
180.0
 51
270.0
  0
ARC
  5
374
100
AcDbEntity
  8
2
  6
CONTINUOUS
 62
     7
 48
0.125
100
AcDbCircle
 10
0.545141
 20
1.209105
 30
0.0
 40
0.08165
100
AcDbArc
 50
0.0
 51
69.477387
  0
ARC
  5
375
100
AcDbEntity
  8
2
  6
CONTINUOUS
 62
     7
 48
0.125
100
AcDbCircle
 10
0.390269
 20
1.251207
 30
0.0
 40
0.100145
100
AcDbArc
 50
66.874638
 51
180.0
  0
ARC
  5
376
100
AcDbEntity
  8
2
  6
CONTINUOUS
 62
     7
 48
0.125
100
AcDbCircle
 10
0.964993
 20
1.029549
 30
0.0
 40
0.04425
100
AcDbArc
 50
270.0
 51
76.858
  0
ARC
  5
377
100
AcDbEntity
  8
2
  6
CONTINUOUS
 62
     7
 48
0.125
100
AcDbCircle
 10
0.995841
 20
1.023482
 30
0.0
 40
0.131074
100
AcDbArc
 50
300.610574
 51
77.365113
  0
ARC
  5
378
100
AcDbEntity
  8
2
  6
CONTINUOUS
 62
     7
 48
0.125
100
AcDbCircle
 10
0.913266
 20
0.823623
 30
0.0
 40
0.07563
100
AcDbArc
 50
28.216836
 51
90.0
  0
ARC
  5
379
100
AcDbEntity
  8
2
  6
CONTINUOUS
 62
     7
 48
0.125
100
AcDbCircle
 10
-0.501258
 20
1.18794
 30
0.0
 40
0.029227
100
AcDbArc
 50
111.068331
 51
180.0
  0
POLYLINE
  5
37A
100
AcDbEntity
  8
2
  6
CONTINUOUS
 62
     7
 48
0.125
100
AcDb2dPolyline
 66
     1
 10
0.0
 20
0.0
 30
0.0
 70
   128
  0
VERTEX
  5
37B
100
AcDbEntity
  8
2
  6
CONTINUOUS
 62
     7
 48
0.125
100
AcDbVertex
100
AcDb2dVertex
 10
0.847615
 20
-0.797805
 30
0.0
 40
0.0
 41
0.0
  0
VERTEX
  5
37C
100
AcDbEntity
  8
2
  6
CONTINUOUS
 62
     7
 48
0.125
100
AcDbVertex
100
AcDb2dVertex
 10
1.103155
 20
-0.797805
 30
0.0
 40
0.0
 41
0.0
  0
SEQEND
  5
37D
100
AcDbEntity
  8
0
  0
POLYLINE
  5
37E
100
AcDbEntity
  8
2
  6
CONTINUOUS
 62
     7
 48
0.125
100
AcDb2dPolyline
 66
     1
 10
0.0
 20
0.0
 30
0.0
 70
   128
  0
VERTEX
  5
37F
100
AcDbEntity
  8
2
  6
CONTINUOUS
 62
     7
 48
0.125
100
AcDbVertex
100
AcDb2dVertex
 10
0.798927
 20
-0.70894
 30
0.0
 40
0.0
 41
0.0
  0
VERTEX
  5
380
100
AcDbEntity
  8
2
  6
CONTINUOUS
 62
     7
 48
0.125
100
AcDbVertex
100
AcDb2dVertex
 10
1.103155
 20
-0.70894
 30
0.0
 40
0.0
 41
0.0
  0
SEQEND
  5
381
100
AcDbEntity
  8
0
  0
POLYLINE
  5
382
100
AcDbEntity
  8
2
  6
CONTINUOUS
 62
     7
 48
0.125
100
AcDb2dPolyline
 66
     1
 10
0.0
 20
0.0
 30
0.0
 70
   128
  0
VERTEX
  5
383
100
AcDbEntity
  8
2
  6
CONTINUOUS
 62
     7
 48
0.125
100
AcDbVertex
100
AcDb2dVertex
 10
0.828707
 20
-0.900093
 30
0.0
 40
0.0
 41
0.0
  0
VERTEX
  5
384
100
AcDbEntity
  8
2
  6
CONTINUOUS
 62
     7
 48
0.125
100
AcDbVertex
100
AcDb2dVertex
 10
0.828707
 20
-0.816713
 30
0.0
 40
0.0
 41
0.0
  0
SEQEND
  5
385
100
AcDbEntity
  8
0
  0
POLYLINE
  5
386
100
AcDbEntity
  8
2
  6
CONTINUOUS
 62
     7
 48
0.125
100
AcDb2dPolyline
 66
     1
 10
0.0
 20
0.0
 30
0.0
 70
   128
  0
VERTEX
  5
387
100
AcDbEntity
  8
2
  6
CONTINUOUS
 62
     7
 48
0.125
100
AcDbVertex
100
AcDb2dVertex
 10
1.001617
 20
-1.007867
 30
0.0
 40
0.0
 41
0.0
  0
VERTEX
  5
388
100
AcDbEntity
  8
2
  6
CONTINUOUS
 62
     7
 48
0.125
100
AcDbVertex
100
AcDb2dVertex
 10
0.78711
 20
-1.007867
 30
0.0
 40
0.0
 41
0.0
  0
SEQEND
  5
389
100
AcDbEntity
  8
0
  0
POLYLINE
  5
38A
100
AcDbEntity
  8
2
  6
CONTINUOUS
 62
     7
 48
0.125
100
AcDb2dPolyline
 66
     1
 10
0.0
 20
0.0
 30
0.0
 70
   128
  0
VERTEX
  5
38B
100
AcDbEntity
  8
2
  6
CONTINUOUS
 62
     7
 48
0.125
100
AcDbVertex
100
AcDb2dVertex
 10
0.502141
 20
-0.81503
 30
0.0
 40
0.0
 41
0.0
  0
VERTEX
  5
38C
100
AcDbEntity
  8
2
  6
CONTINUOUS
 62
     7
 48
0.125
100
AcDbVertex
100
AcDb2dVertex
 10
0.502265
 20
-0.983742
 30
0.0
 40
0.0
 41
0.0
  0
SEQEND
  5
38D
100
AcDbEntity
  8
0
  0
POLYLINE
  5
38E
100
AcDbEntity
  8
2
  6
CONTINUOUS
 62
     7
 48
0.125
100
AcDb2dPolyline
 66
     1
 10
0.0
 20
0.0
 30
0.0
 70
   128
  0
VERTEX
  5
38F
100
AcDbEntity
  8
2
  6
CONTINUOUS
 62
     7
 48
0.125
100
AcDbVertex
100
AcDb2dVertex
 10
0.640321
 20
-1.379354
 30
0.0
 40
0.0
 41
0.0
  0
VERTEX
  5
390
100
AcDbEntity
  8
2
  6
CONTINUOUS
 62
     7
 48
0.125
100
AcDbVertex
100
AcDb2dVertex
 10
0.640321
 20
-1.329366
 30
0.0
 40
0.0
 41
0.0
  0
SEQEND
  5
391
100
AcDbEntity
  8
0
  0
POLYLINE
  5
392
100
AcDbEntity
  8
2
  6
CONTINUOUS
 62
     7
 48
0.125
100
AcDb2dPolyline
 66
     1
 10
0.0
 20
0.0
 30
0.0
 70
   128
  0
VERTEX
  5
393
100
AcDbEntity
  8
2
  6
CONTINUOUS
 62
     7
 48
0.125
100
AcDbVertex
100
AcDb2dVertex
 10
0.502358
 20
-1.110422
 30
0.0
 40
0.0
 41
0.0
  0
VERTEX
  5
394
100
AcDbEntity
  8
2
  6
CONTINUOUS
 62
     7
 48
0.125
100
AcDbVertex
100
AcDb2dVertex
 10
0.502525
 20
-1.337359
 30
0.0
 40
0.0
 41
0.0
  0
SEQEND
  5
395
100
AcDbEntity
  8
0
  0
POLYLINE
  5
396
100
AcDbEntity
  8
2
  6
CONTINUOUS
 62
     7
 48
0.125
100
AcDb2dPolyline
 66
     1
 10
0.0
 20
0.0
 30
0.0
 70
   128
  0
VERTEX
  5
397
100
AcDbEntity
  8
2
  6
CONTINUOUS
 62
     7
 48
0.125
100
AcDbVertex
100
AcDb2dVertex
 10
0.521265
 20
-1.091501
 30
0.0
 40
0.0
 41
0.0
  0
VERTEX
  5
398
100
AcDbEntity
  8
2
  6
CONTINUOUS
 62
     7
 48
0.125
100
AcDbVertex
100
AcDb2dVertex
 10
0.617413
 20
-1.091501
 30
0.0
 40
0.0
 41
0.0
  0
SEQEND
  5
399
100
AcDbEntity
  8
0
  0
POLYLINE
  5
39A
100
AcDbEntity
  8
2
  6
CONTINUOUS
 62
     7
 48
0.125
100
AcDb2dPolyline
 66
     1
 10
0.0
 20
0.0
 30
0.0
 70
   128
  0
VERTEX
  5
39B
100
AcDbEntity
  8
2
  6
CONTINUOUS
 62
     7
 48
0.125
100
AcDbVertex
100
AcDb2dVertex
 10
0.636321
 20
-1.072593
 30
0.0
 40
0.0
 41
0.0
  0
VERTEX
  5
39C
100
AcDbEntity
  8
2
  6
CONTINUOUS
 62
     7
 48
0.125
100
AcDbVertex
100
AcDb2dVertex
 10
0.636321
 20
-1.021543
 30
0.0
 40
0.0
 41
0.0
  0
SEQEND
  5
39D
100
AcDbEntity
  8
0
  0
POLYLINE
  5
39E
100
AcDbEntity
  8
2
  6
CONTINUOUS
 62
     7
 48
0.125
100
AcDb2dPolyline
 66
     1
 10
0.0
 20
0.0
 30
0.0
 70
   128
  0
VERTEX
  5
39F
100
AcDbEntity
  8
2
  6
CONTINUOUS
 62
     7
 48
0.125
100
AcDbVertex
100
AcDb2dVertex
 10
0.521172
 20
-1.002635
 30
0.0
 40
0.0
 41
0.0
  0
VERTEX
  5
3A0
100
AcDbEntity
  8
2
  6
CONTINUOUS
 62
     7
 48
0.125
100
AcDbVertex
100
AcDb2dVertex
 10
0.617413
 20
-1.002635
 30
0.0
 40
0.0
 41
0.0
  0
SEQEND
  5
3A1
100
AcDbEntity
  8
0
  0
POLYLINE
  5
3A2
100
AcDbEntity
  8
2
  6
CONTINUOUS
 62
     7
 48
0.125
100
AcDb2dPolyline
 66
     1
 10
0.0
 20
0.0
 30
0.0
 70
   128
  0
VERTEX
  5
3A3
100
AcDbEntity
  8
2
  6
CONTINUOUS
 62
     7
 48
0.125
100
AcDbVertex
100
AcDb2dVertex
 10
0.637723
 20
-0.727848
 30
0.0
 40
0.0
 41
0.0
  0
VERTEX
  5
3A4
100
AcDbEntity
  8
2
  6
CONTINUOUS
 62
     7
 48
0.125
100
AcDbVertex
100
AcDb2dVertex
 10
0.637723
 20
-0.777201
 30
0.0
 40
0.0
 41
0.0
  0
SEQEND
  5
3A5
100
AcDbEntity
  8
0
  0
POLYLINE
  5
3A6
100
AcDbEntity
  8
2
  6
CONTINUOUS
 62
     7
 48
0.125
100
AcDb2dPolyline
 66
     1
 10
0.0
 20
0.0
 30
0.0
 70
   128
  0
VERTEX
  5
3A7
100
AcDbEntity
  8
2
  6
CONTINUOUS
 62
     7
 48
0.125
100
AcDbVertex
100
AcDb2dVertex
 10
0.521048
 20
-0.796108
 30
0.0
 40
0.0
 41
0.0
  0
VERTEX
  5
3A8
100
AcDbEntity
  8
2
  6
CONTINUOUS
 62
     7
 48
0.125
100
AcDbVertex
100
AcDb2dVertex
 10
0.618815
 20
-0.796108
 30
0.0
 40
0.0
 41
0.0
  0
SEQEND
  5
3A9
100
AcDbEntity
  8
0
  0
POLYLINE
  5
3AA
100
AcDbEntity
  8
2
  6
CONTINUOUS
 62
     7
 48
0.125
100
AcDb2dPolyline
 66
     1
 10
0.0
 20
0.0
 30
0.0
 70
   128
  0
VERTEX
  5
3AB
100
AcDbEntity
  8
2
  6
CONTINUOUS
 62
     7
 48
0.125
100
AcDbVertex
100
AcDb2dVertex
 10
-1.041796
 20
-0.797521
 30
0.0
 40
0.0
 41
0.0
  0
VERTEX
  5
3AC
100
AcDbEntity
  8
2
  6
CONTINUOUS
 62
     7
 48
0.125
100
AcDbVertex
100
AcDb2dVertex
 10
-0.852369
 20
-0.797521
 30
0.0
 40
0.0
 41
0.0
  0
SEQEND
  5
3AD
100
AcDbEntity
  8
0
  0
POLYLINE
  5
3AE
100
AcDbEntity
  8
2
  6
CONTINUOUS
 62
     7
 48
0.125
100
AcDb2dPolyline
 66
     1
 10
0.0
 20
0.0
 30
0.0
 70
   128
  0
VERTEX
  5
3AF
100
AcDbEntity
  8
2
  6
CONTINUOUS
 62
     7
 48
0.125
100
AcDbVertex
100
AcDb2dVertex
 10
0.473071
 20
-0.70894
 30
0.0
 40
0.0
 41
0.0
  0
VERTEX
  5
3B0
100
AcDbEntity
  8
2
  6
CONTINUOUS
 62
     7
 48
0.125
100
AcDbVertex
100
AcDb2dVertex
 10
0.618815
 20
-0.70894
 30
0.0
 40
0.0
 41
0.0
  0
SEQEND
  5
3B1
100
AcDbEntity
  8
0
  0
POLYLINE
  5
3B2
100
AcDbEntity
  8
2
  6
CONTINUOUS
 62
     7
 48
0.125
100
AcDb2dPolyline
 66
     1
 10
0.0
 20
0.0
 30
0.0
 70
   128
  0
VERTEX
  5
3B3
100
AcDbEntity
  8
2
  6
CONTINUOUS
 62
     7
 48
0.125
100
AcDbVertex
100
AcDb2dVertex
 10
0.338344
 20
-1.53659
 30
0.0
 40
0.0
 41
0.0
  0
VERTEX
  5
3B4
100
AcDbEntity
  8
2
  6
CONTINUOUS
 62
     7
 48
0.125
100
AcDbVertex
100
AcDb2dVertex
 10
0.338389
 20
-1.481601
 30
0.0
 40
0.0
 41
0.0
  0
SEQEND
  5
3B5
100
AcDbEntity
  8
0
  0
POLYLINE
  5
3B6
100
AcDbEntity
  8
2
  6
CONTINUOUS
 62
     7
 48
0.125
100
AcDb2dPolyline
 66
     1
 10
0.0
 20
0.0
 30
0.0
 70
   128
  0
VERTEX
  5
3B7
100
AcDbEntity
  8
2
  6
CONTINUOUS
 62
     7
 48
0.125
100
AcDbVertex
100
AcDb2dVertex
 10
0.084299
 20
-0.70894
 30
0.0
 40
0.0
 41
0.0
  0
VERTEX
  5
3B8
100
AcDbEntity
  8
2
  6
CONTINUOUS
 62
     7
 48
0.125
100
AcDbVertex
100
AcDb2dVertex
 10
0.135327
 20
-0.70894
 30
0.0
 40
0.0
 41
0.0
  0
SEQEND
  5
3B9
100
AcDbEntity
  8
0
  0
POLYLINE
  5
3BA
100
AcDbEntity
  8
2
  6
CONTINUOUS
 62
     7
 48
0.125
100
AcDb2dPolyline
 66
     1
 10
0.0
 20
0.0
 30
0.0
 70
   128
  0
VERTEX
  5
3BB
100
AcDbEntity
  8
2
  6
CONTINUOUS
 62
     7
 48
0.125
100
AcDbVertex
100
AcDb2dVertex
 10
0.154234
 20
-1.496576
 30
0.0
 40
0.0
 41
0.0
  0
VERTEX
  5
3BC
100
AcDbEntity
  8
2
  6
CONTINUOUS
 62
     7
 48
0.125
100
AcDbVertex
100
AcDb2dVertex
 10
0.154234
 20
-0.727848
 30
0.0
 40
0.0
 41
0.0
  0
SEQEND
  5
3BD
100
AcDbEntity
  8
0
  0
POLYLINE
  5
3BE
100
AcDbEntity
  8
2
  6
CONTINUOUS
 62
     7
 48
0.125
100
AcDb2dPolyline
 66
     1
 10
0.0
 20
0.0
 30
0.0
 70
   128
  0
VERTEX
  5
3BF
100
AcDbEntity
  8
2
  6
CONTINUOUS
 62
     7
 48
0.125
100
AcDbVertex
100
AcDb2dVertex
 10
-0.040886
 20
-1.626392
 30
0.0
 40
0.0
 41
0.0
  0
VERTEX
  5
3C0
100
AcDbEntity
  8
2
  6
CONTINUOUS
 62
     7
 48
0.125
100
AcDbVertex
100
AcDb2dVertex
 10
-0.041169
 20
-1.574066
 30
0.0
 40
0.0
 41
0.0
  0
SEQEND
  5
3C1
100
AcDbEntity
  8
0
  0
POLYLINE
  5
3C2
100
AcDbEntity
  8
2
  6
CONTINUOUS
 62
     7
 48
0.125
100
AcDb2dPolyline
 66
     1
 10
0.0
 20
0.0
 30
0.0
 70
   128
  0
VERTEX
  5
3C3
100
AcDbEntity
  8
2
  6
CONTINUOUS
 62
     7
 48
0.125
100
AcDbVertex
100
AcDb2dVertex
 10
-0.040311
 20
-0.776712
 30
0.0
 40
0.0
 41
0.0
  0
VERTEX
  5
3C4
100
AcDbEntity
  8
2
  6
CONTINUOUS
 62
     7
 48
0.125
100
AcDbVertex
100
AcDb2dVertex
 10
-0.040311
 20
-0.725662
 30
0.0
 40
0.0
 41
0.0
  0
SEQEND
  5
3C5
100
AcDbEntity
  8
0
  0
POLYLINE
  5
3C6
100
AcDbEntity
  8
2
  6
CONTINUOUS
 62
     7
 48
0.125
100
AcDb2dPolyline
 66
     1
 10
0.0
 20
0.0
 30
0.0
 70
   128
  0
VERTEX
  5
3C7
100
AcDbEntity
  8
2
  6
CONTINUOUS
 62
     7
 48
0.125
100
AcDbVertex
100
AcDb2dVertex
 10
-0.190349
 20
-0.79562
 30
0.0
 40
0.0
 41
0.0
  0
VERTEX
  5
3C8
100
AcDbEntity
  8
2
  6
CONTINUOUS
 62
     7
 48
0.125
100
AcDbVertex
100
AcDb2dVertex
 10
-0.059218
 20
-0.79562
 30
0.0
 40
0.0
 41
0.0
  0
SEQEND
  5
3C9
100
AcDbEntity
  8
0
  0
POLYLINE
  5
3CA
100
AcDbEntity
  8
2
  6
CONTINUOUS
 62
     7
 48
0.125
100
AcDb2dPolyline
 66
     1
 10
0.0
 20
0.0
 30
0.0
 70
   128
  0
VERTEX
  5
3CB
100
AcDbEntity
  8
2
  6
CONTINUOUS
 62
     7
 48
0.125
100
AcDbVertex
100
AcDb2dVertex
 10
-0.254547
 20
-0.70894
 30
0.0
 40
0.0
 41
0.0
  0
VERTEX
  5
3CC
100
AcDbEntity
  8
2
  6
CONTINUOUS
 62
     7
 48
0.125
100
AcDbVertex
100
AcDb2dVertex
 10
-0.059091
 20
-0.70894
 30
0.0
 40
0.0
 41
0.0
  0
SEQEND
  5
3CD
100
AcDbEntity
  8
0
  0
POLYLINE
  5
3CE
100
AcDbEntity
  8
2
  6
CONTINUOUS
 62
     7
 48
0.125
100
AcDb2dPolyline
 66
     1
 10
0.0
 20
0.0
 30
0.0
 70
   128
  0
VERTEX
  5
3CF
100
AcDbEntity
  8
2
  6
CONTINUOUS
 62
     7
 48
0.125
100
AcDbVertex
100
AcDb2dVertex
 10
-0.746112
 20
-0.70894
 30
0.0
 40
0.0
 41
0.0
  0
VERTEX
  5
3D0
100
AcDbEntity
  8
2
  6
CONTINUOUS
 62
     7
 48
0.125
100
AcDbVertex
100
AcDb2dVertex
 10
-0.651543
 20
-0.70894
 30
0.0
 40
0.0
 41
0.0
  0
SEQEND
  5
3D1
100
AcDbEntity
  8
0
  0
POLYLINE
  5
3D2
100
AcDbEntity
  8
2
  6
CONTINUOUS
 62
     7
 48
0.125
100
AcDb2dPolyline
 66
     1
 10
0.0
 20
0.0
 30
0.0
 70
   128
  0
VERTEX
  5
3D3
100
AcDbEntity
  8
2
  6
CONTINUOUS
 62
     7
 48
0.125
100
AcDbVertex
100
AcDb2dVertex
 10
-0.468385
 20
-0.70894
 30
0.0
 40
0.0
 41
0.0
  0
VERTEX
  5
3D4
100
AcDbEntity
  8
2
  6
CONTINUOUS
 62
     7
 48
0.125
100
AcDbVertex
100
AcDb2dVertex
 10
-0.370333
 20
-0.70894
 30
0.0
 40
0.0
 41
0.0
  0
SEQEND
  5
3D5
100
AcDbEntity
  8
0
  0
POLYLINE
  5
3D6
100
AcDbEntity
  8
2
  6
CONTINUOUS
 62
     7
 48
0.125
100
AcDb2dPolyline
 66
     1
 10
0.0
 20
0.0
 30
0.0
 70
   128
  0
VERTEX
  5
3D7
100
AcDbEntity
  8
2
  6
CONTINUOUS
 62
     7
 48
0.125
100
AcDbVertex
100
AcDb2dVertex
 10
-0.571252
 20
-0.929539
 30
0.0
 40
0.0
 41
0.0
  0
VERTEX
  5
3D8
100
AcDbEntity
  8
2
  6
CONTINUOUS
 62
     7
 48
0.125
100
AcDbVertex
100
AcDb2dVertex
 10
-0.468385
 20
-0.70894
 30
0.0
 40
0.0
 41
0.0
  0
SEQEND
  5
3D9
100
AcDbEntity
  8
0
  0
POLYLINE
  5
3DA
100
AcDbEntity
  8
2
  6
CONTINUOUS
 62
     7
 48
0.125
100
AcDb2dPolyline
 66
     1
 10
0.0
 20
0.0
 30
0.0
 70
   128
  0
VERTEX
  5
3DB
100
AcDbEntity
  8
2
  6
CONTINUOUS
 62
     7
 48
0.125
100
AcDbVertex
100
AcDb2dVertex
 10
-0.571252
 20
-0.929539
 30
0.0
 40
0.0
 41
0.0
  0
VERTEX
  5
3DC
100
AcDbEntity
  8
2
  6
CONTINUOUS
 62
     7
 48
0.125
100
AcDbVertex
100
AcDb2dVertex
 10
-0.651543
 20
-0.70894
 30
0.0
 40
0.0
 41
0.0
  0
SEQEND
  5
3DD
100
AcDbEntity
  8
0
  0
POLYLINE
  5
3DE
100
AcDbEntity
  8
2
  6
CONTINUOUS
 62
     7
 48
0.125
100
AcDb2dPolyline
 66
     1
 10
0.0
 20
0.0
 30
0.0
 70
   128
  0
VERTEX
  5
3DF
100
AcDbEntity
  8
2
  6
CONTINUOUS
 62
     7
 48
0.125
100
AcDbVertex
100
AcDb2dVertex
 10
-0.531386
 20
-1.054319
 30
0.0
 40
0.0
 41
0.0
  0
VERTEX
  5
3E0
100
AcDbEntity
  8
2
  6
CONTINUOUS
 62
     7
 48
0.125
100
AcDbVertex
100
AcDb2dVertex
 10
-0.531386
 20
-1.457271
 30
0.0
 40
0.0
 41
0.0
  0
SEQEND
  5
3E1
100
AcDbEntity
  8
0
  0
POLYLINE
  5
3E2
100
AcDbEntity
  8
2
  6
CONTINUOUS
 62
     7
 48
0.125
100
AcDb2dPolyline
 66
     1
 10
0.0
 20
0.0
 30
0.0
 70
   128
  0
VERTEX
  5
3E3
100
AcDbEntity
  8
2
  6
CONTINUOUS
 62
     7
 48
0.125
100
AcDbVertex
100
AcDb2dVertex
 10
-1.060703
 20
-0.997654
 30
0.0
 40
0.0
 41
0.0
  0
VERTEX
  5
3E4
100
AcDbEntity
  8
2
  6
CONTINUOUS
 62
     7
 48
0.125
100
AcDbVertex
100
AcDb2dVertex
 10
-1.060703
 20
-0.816428
 30
0.0
 40
0.0
 41
0.0
  0
SEQEND
  5
3E5
100
AcDbEntity
  8
0
  0
POLYLINE
  5
3E6
100
AcDbEntity
  8
2
  6
CONTINUOUS
 62
     7
 48
0.125
100
AcDb2dPolyline
 66
     1
 10
0.0
 20
0.0
 30
0.0
 70
   128
  0
VERTEX
  5
3E7
100
AcDbEntity
  8
2
  6
CONTINUOUS
 62
     7
 48
0.125
100
AcDbVertex
100
AcDb2dVertex
 10
-0.783384
 20
-1.276976
 30
0.0
 40
0.0
 41
0.0
  0
VERTEX
  5
3E8
100
AcDbEntity
  8
2
  6
CONTINUOUS
 62
     7
 48
0.125
100
AcDbVertex
100
AcDb2dVertex
 10
-0.762018
 20
-1.231572
 30
0.0
 40
0.0
 41
0.0
  0
SEQEND
  5
3E9
100
AcDbEntity
  8
0
  0
POLYLINE
  5
3EA
100
AcDbEntity
  8
2
  6
CONTINUOUS
 62
     7
 48
0.125
100
AcDb2dPolyline
 66
     1
 10
0.0
 20
0.0
 30
0.0
 70
   128
  0
VERTEX
  5
3EB
100
AcDbEntity
  8
2
  6
CONTINUOUS
 62
     7
 48
0.125
100
AcDbVertex
100
AcDb2dVertex
 10
-0.216496
 20
-0.821766
 30
0.0
 40
0.0
 41
0.0
  0
VERTEX
  5
3EC
100
AcDbEntity
  8
2
  6
CONTINUOUS
 62
     7
 48
0.125
100
AcDbVertex
100
AcDb2dVertex
 10
-0.216496
 20
-1.481585
 30
0.0
 40
0.0
 41
0.0
  0
SEQEND
  5
3ED
100
AcDbEntity
  8
0
  0
POLYLINE
  5
3EE
100
AcDbEntity
  8
2
  6
CONTINUOUS
 62
     7
 48
0.125
100
AcDb2dPolyline
 66
     1
 10
0.0
 20
0.0
 30
0.0
 70
   128
  0
VERTEX
  5
3EF
100
AcDbEntity
  8
2
  6
CONTINUOUS
 62
     7
 48
0.125
100
AcDbVertex
100
AcDb2dVertex
 10
-0.62357
 20
-1.045621
 30
0.0
 40
0.0
 41
0.0
  0
VERTEX
  5
3F0
100
AcDbEntity
  8
2
  6
CONTINUOUS
 62
     7
 48
0.125
100
AcDbVertex
100
AcDb2dVertex
 10
-0.62357
 20
-1.405069
 30
0.0
 40
0.0
 41
0.0
  0
SEQEND
  5
3F1
100
AcDbEntity
  8
0
  0
POLYLINE
  5
3F2
100
AcDbEntity
  8
2
  6
CONTINUOUS
 62
     7
 48
0.125
100
AcDb2dPolyline
 66
     1
 10
0.0
 20
0.0
 30
0.0
 70
   128
  0
VERTEX
  5
3F3
100
AcDbEntity
  8
2
  6
CONTINUOUS
 62
     7
 48
0.125
100
AcDbVertex
100
AcDb2dVertex
 10
1.110147
 20
-0.919001
 30
0.0
 40
0.0
 41
0.0
  0
VERTEX
  5
3F4
100
AcDbEntity
  8
2
  6
CONTINUOUS
 62
     7
 48
0.125
100
AcDbVertex
100
AcDb2dVertex
 10
0.847615
 20
-0.919001
 30
0.0
 40
0.0
 41
0.0
  0
SEQEND
  5
3F5
100
AcDbEntity
  8
0
  0
POLYLINE
  5
3F6
100
AcDbEntity
  8
2
  6
CONTINUOUS
 62
     7
 48
0.125
100
AcDb2dPolyline
 66
     1
 10
0.0
 20
0.0
 30
0.0
 70
   128
  0
VERTEX
  5
3F7
100
AcDbEntity
  8
2
  6
CONTINUOUS
 62
     7
 48
0.125
100
AcDbVertex
100
AcDb2dVertex
 10
1.129054
 20
-0.937908
 30
0.0
 40
0.0
 41
0.0
  0
VERTEX
  5
3F8
100
AcDbEntity
  8
2
  6
CONTINUOUS
 62
     7
 48
0.125
100
AcDbVertex
100
AcDb2dVertex
 10
1.129054
 20
-1.058356
 30
0.0
 40
0.0
 41
0.0
  0
SEQEND
  5
3F9
100
AcDbEntity
  8
0
  0
POLYLINE
  5
3FA
100
AcDbEntity
  8
2
  6
CONTINUOUS
 62
     7
 48
0.125
100
AcDb2dPolyline
 66
     1
 10
0.0
 20
0.0
 30
0.0
 70
   128
  0
VERTEX
  5
3FB
100
AcDbEntity
  8
2
  6
CONTINUOUS
 62
     7
 48
0.125
100
AcDbVertex
100
AcDb2dVertex
 10
0.741833
 20
-1.296042
 30
0.0
 40
0.0
 41
0.0
  0
VERTEX
  5
3FC
100
AcDbEntity
  8
2
  6
CONTINUOUS
 62
     7
 48
0.125
100
AcDbVertex
100
AcDb2dVertex
 10
0.741833
 20
-1.235527
 30
0.0
 40
0.0
 41
0.0
  0
SEQEND
  5
3FD
100
AcDbEntity
  8
0
  0
POLYLINE
  5
3FE
100
AcDbEntity
  8
2
  6
CONTINUOUS
 62
     7
 48
0.125
100
AcDb2dPolyline
 66
     1
 10
0.0
 20
0.0
 30
0.0
 70
   128
  0
VERTEX
  5
3FF
100
AcDbEntity
  8
2
  6
CONTINUOUS
 62
     7
 48
0.125
100
AcDbVertex
100
AcDb2dVertex
 10
1.122063
 20
-0.778898
 30
0.0
 40
0.0
 41
0.0
  0
VERTEX
  5
400
100
AcDbEntity
  8
2
  6
CONTINUOUS
 62
     7
 48
0.125
100
AcDbVertex
100
AcDb2dVertex
 10
1.122063
 20
-0.727848
 30
0.0
 40
0.0
 41
0.0
  0
SEQEND
  5
401
100
AcDbEntity
  8
0
  0
POLYLINE
  5
402
100
AcDbEntity
  8
2
  6
CONTINUOUS
 62
     7
 48
0.125
100
AcDb2dPolyline
 66
     1
 10
0.0
 20
0.0
 30
0.0
 70
   128
  0
VERTEX
  5
403
100
AcDbEntity
  8
2
  6
CONTINUOUS
 62
     7
 48
0.125
100
AcDbVertex
100
AcDb2dVertex
 10
0.739841
 20
-0.960598
 30
0.0
 40
0.0
 41
0.0
  0
VERTEX
  5
404
100
AcDbEntity
  8
2
  6
CONTINUOUS
 62
     7
 48
0.125
100
AcDbVertex
100
AcDb2dVertex
 10
0.739841
 20
-0.768026
 30
0.0
 40
0.0
 41
0.0
  0
SEQEND
  5
405
100
AcDbEntity
  8
0
  0
POLYLINE
  5
406
100
AcDbEntity
  8
2
  6
CONTINUOUS
 62
     7
 48
0.125
100
AcDb2dPolyline
 66
     1
 10
0.0
 20
0.0
 30
0.0
 70
   128
  0
VERTEX
  5
407
100
AcDbEntity
  8
2
  6
CONTINUOUS
 62
     7
 48
0.125
100
AcDbVertex
100
AcDb2dVertex
 10
0.413985
 20
-1.419476
 30
0.0
 40
0.0
 41
0.0
  0
VERTEX
  5
408
100
AcDbEntity
  8
2
  6
CONTINUOUS
 62
     7
 48
0.125
100
AcDbVertex
100
AcDb2dVertex
 10
0.413985
 20
-0.768026
 30
0.0
 40
0.0
 41
0.0
  0
SEQEND
  5
409
100
AcDbEntity
  8
0
  0
POLYLINE
  5
40A
100
AcDbEntity
  8
2
  6
CONTINUOUS
 62
     7
 48
0.125
100
AcDb2dPolyline
 66
     1
 10
0.0
 20
0.0
 30
0.0
 70
   128
  0
VERTEX
  5
40B
100
AcDbEntity
  8
2
  6
CONTINUOUS
 62
     7
 48
0.125
100
AcDbVertex
100
AcDb2dVertex
 10
0.065392
 20
-1.619861
 30
0.0
 40
0.0
 41
0.0
  0
VERTEX
  5
40C
100
AcDbEntity
  8
2
  6
CONTINUOUS
 62
     7
 48
0.125
100
AcDbVertex
100
AcDb2dVertex
 10
0.065392
 20
-0.727848
 30
0.0
 40
0.0
 41
0.0
  0
SEQEND
  5
40D
100
AcDbEntity
  8
0
  0
POLYLINE
  5
40E
100
AcDbEntity
  8
2
  6
CONTINUOUS
 62
     7
 48
0.125
100
AcDb2dPolyline
 66
     1
 10
0.0
 20
0.0
 30
0.0
 70
   128
  0
VERTEX
  5
40F
100
AcDbEntity
  8
2
  6
CONTINUOUS
 62
     7
 48
0.125
100
AcDbVertex
100
AcDb2dVertex
 10
-0.313633
 20
-1.517071
 30
0.0
 40
0.0
 41
0.0
  0
VERTEX
  5
410
100
AcDbEntity
  8
2
  6
CONTINUOUS
 62
     7
 48
0.125
100
AcDbVertex
100
AcDb2dVertex
 10
-0.313633
 20
-0.768026
 30
0.0
 40
0.0
 41
0.0
  0
SEQEND
  5
411
100
AcDbEntity
  8
0
  0
POLYLINE
  5
412
100
AcDbEntity
  8
2
  6
CONTINUOUS
 62
     7
 48
0.125
100
AcDb2dPolyline
 66
     1
 10
0.0
 20
0.0
 30
0.0
 70
   128
  0
VERTEX
  5
413
100
AcDbEntity
  8
2
  6
CONTINUOUS
 62
     7
 48
0.125
100
AcDbVertex
100
AcDb2dVertex
 10
-0.531386
 20
-1.054319
 30
0.0
 40
0.0
 41
0.0
  0
VERTEX
  5
414
100
AcDbEntity
  8
2
  6
CONTINUOUS
 62
     7
 48
0.125
100
AcDbVertex
100
AcDb2dVertex
 10
-0.370333
 20
-0.70894
 30
0.0
 40
0.0
 41
0.0
  0
SEQEND
  5
415
100
AcDbEntity
  8
0
  0
POLYLINE
  5
416
100
AcDbEntity
  8
2
  6
CONTINUOUS
 62
     7
 48
0.125
100
AcDb2dPolyline
 66
     1
 10
0.0
 20
0.0
 30
0.0
 70
   128
  0
VERTEX
  5
417
100
AcDbEntity
  8
2
  6
CONTINUOUS
 62
     7
 48
0.125
100
AcDbVertex
100
AcDb2dVertex
 10
-0.62357
 20
-1.045621
 30
0.0
 40
0.0
 41
0.0
  0
VERTEX
  5
418
100
AcDbEntity
  8
2
  6
CONTINUOUS
 62
     7
 48
0.125
100
AcDbVertex
100
AcDb2dVertex
 10
-0.746112
 20
-0.70894
 30
0.0
 40
0.0
 41
0.0
  0
SEQEND
  5
419
100
AcDbEntity
  8
0
  0
POLYLINE
  5
41A
100
AcDbEntity
  8
2
  6
CONTINUOUS
 62
     7
 48
0.125
100
AcDb2dPolyline
 66
     1
 10
0.0
 20
0.0
 30
0.0
 70
   128
  0
VERTEX
  5
41B
100
AcDbEntity
  8
2
  6
CONTINUOUS
 62
     7
 48
0.125
100
AcDbVertex
100
AcDb2dVertex
 10
-0.833461
 20
-0.778613
 30
0.0
 40
0.0
 41
0.0
  0
VERTEX
  5
41C
100
AcDbEntity
  8
2
  6
CONTINUOUS
 62
     7
 48
0.125
100
AcDbVertex
100
AcDb2dVertex
 10
-0.833461
 20
-0.727848
 30
0.0
 40
0.0
 41
0.0
  0
SEQEND
  5
41D
100
AcDbEntity
  8
0
  0
POLYLINE
  5
41E
100
AcDbEntity
  8
2
  6
CONTINUOUS
 62
     7
 48
0.125
100
AcDb2dPolyline
 66
     1
 10
0.0
 20
0.0
 30
0.0
 70
   128
  0
VERTEX
  5
41F
100
AcDbEntity
  8
2
  6
CONTINUOUS
 62
     7
 48
0.125
100
AcDbVertex
100
AcDb2dVertex
 10
-1.14978
 20
-1.022578
 30
0.0
 40
0.0
 41
0.0
  0
VERTEX
  5
420
100
AcDbEntity
  8
2
  6
CONTINUOUS
 62
     7
 48
0.125
100
AcDbVertex
100
AcDb2dVertex
 10
-1.14978
 20
-0.768026
 30
0.0
 40
0.0
 41
0.0
  0
SEQEND
  5
421
100
AcDbEntity
  8
0
  0
POLYLINE
  5
422
100
AcDbEntity
  8
2
  6
CONTINUOUS
 62
     7
 48
0.125
100
AcDb2dPolyline
 66
     1
 10
0.0
 20
0.0
 30
0.0
 70
   128
  0
VERTEX
  5
423
100
AcDbEntity
  8
2
  6
CONTINUOUS
 62
     7
 48
0.125
100
AcDbVertex
100
AcDb2dVertex
 10
-1.090694
 20
-0.70894
 30
0.0
 40
0.0
 41
0.0
  0
VERTEX
  5
424
100
AcDbEntity
  8
2
  6
CONTINUOUS
 62
     7
 48
0.125
100
AcDbVertex
100
AcDb2dVertex
 10
-0.852369
 20
-0.70894
 30
0.0
 40
0.0
 41
0.0
  0
SEQEND
  5
425
100
AcDbEntity
  8
0
  0
ARC
  5
426
100
AcDbEntity
  8
2
  6
CONTINUOUS
 62
     7
 48
0.125
100
AcDbCircle
 10
0.651975
 20
0.796629
 30
0.0
 40
2.456242
100
AcDbArc
 50
249.748103
 51
253.274338
  0
ARC
  5
427
100
AcDbEntity
  8
2
  6
CONTINUOUS
 62
     7
 48
0.125
100
AcDbCircle
 10
0.651975
 20
0.796629
 30
0.0
 40
2.545664
100
AcDbArc
 50
248.659388
 51
253.609129
  0
ARC
  5
428
100
AcDbEntity
  8
2
  6
CONTINUOUS
 62
     7
 48
0.125
100
AcDbCircle
 10
3.174549
 20
4.870882
 30
0.0
 40
7.335754
100
AcDbArc
 50
238.818253
 51
239.180351
  0
ARC
  5
429
100
AcDbEntity
  8
2
  6
CONTINUOUS
 62
     7
 48
0.125
100
AcDbCircle
 10
3.174549
 20
4.870882
 30
0.0
 40
7.246331
100
AcDbArc
 50
234.323667
 51
237.033419
  0
ARC
  5
42A
100
AcDbEntity
  8
2
  6
CONTINUOUS
 62
     7
 48
0.125
100
AcDbCircle
 10
-3.174549
 20
4.870882
 30
0.0
 40
7.246331
100
AcDbArc
 50
302.790945
 51
305.36581
  0
ARC
  5
42B
100
AcDbEntity
  8
2
  6
CONTINUOUS
 62
     7
 48
0.125
100
AcDbCircle
 10
-0.651975
 20
0.796629
 30
0.0
 40
2.456242
100
AcDbArc
 50
298.833217
 51
299.010136
  0
ARC
  5
42C
100
AcDbEntity
  8
2
  6
CONTINUOUS
 62
     7
 48
0.125
100
AcDbCircle
 10
0.798927
 20
-0.768026
 30
0.0
 40
0.059086
100
AcDbArc
 50
90.0
 51
180.0
  0
ARC
  5
42D
100
AcDbEntity
  8
2
  6
CONTINUOUS
 62
     7
 48
0.125
100
AcDbCircle
 10
0.759397
 20
-1.235527
 30
0.0
 40
0.017564
100
AcDbArc
 50
122.790955
 51
180.0
  0
ARC
  5
42E
100
AcDbEntity
  8
2
  6
CONTINUOUS
 62
     7
 48
0.125
100
AcDbCircle
 10
0.76164
 20
-1.296042
 30
0.0
 40
0.019808
100
AcDbArc
 50
180.0
 51
296.736188
  0
ARC
  5
42F
100
AcDbEntity
  8
2
  6
CONTINUOUS
 62
     7
 48
0.125
100
AcDbCircle
 10
1.105969
 20
-1.058356
 30
0.0
 40
0.023085
100
AcDbArc
 50
314.198434
 51
0.0
  0
ARC
  5
430
100
AcDbEntity
  8
2
  6
CONTINUOUS
 62
     7
 48
0.125
100
AcDbCircle
 10
1.110147
 20
-0.937908
 30
0.0
 40
0.018907
100
AcDbArc
 50
0.0
 51
90.0
  0
ARC
  5
431
100
AcDbEntity
  8
2
  6
CONTINUOUS
 62
     7
 48
0.125
100
AcDbCircle
 10
1.103155
 20
-0.727848
 30
0.0
 40
0.018907
100
AcDbArc
 50
0.0
 51
90.0
  0
ARC
  5
432
100
AcDbEntity
  8
2
  6
CONTINUOUS
 62
     7
 48
0.125
100
AcDbCircle
 10
1.103155
 20
-0.778898
 30
0.0
 40
0.018907
100
AcDbArc
 50
270.0
 51
0.0
  0
ARC
  5
433
100
AcDbEntity
  8
2
  6
CONTINUOUS
 62
     7
 48
0.125
100
AcDbCircle
 10
0.847615
 20
-0.816713
 30
0.0
 40
0.018907
100
AcDbArc
 50
90.0
 51
180.0
  0
ARC
  5
434
100
AcDbEntity
  8
2
  6
CONTINUOUS
 62
     7
 48
0.125
100
AcDbCircle
 10
0.847615
 20
-0.900093
 30
0.0
 40
0.018907
100
AcDbArc
 50
180.0
 51
270.0
  0
ARC
  5
435
100
AcDbEntity
  8
2
  6
CONTINUOUS
 62
     7
 48
0.125
100
AcDbCircle
 10
0.78711
 20
-0.960598
 30
0.0
 40
0.047269
100
AcDbArc
 50
180.0
 51
270.0
  0
ARC
  5
436
100
AcDbEntity
  8
2
  6
CONTINUOUS
 62
     7
 48
0.125
100
AcDbCircle
 10
1.001617
 20
-1.028392
 30
0.0
 40
0.020525
100
AcDbArc
 50
331.113319
 51
90.0
  0
ARC
  5
437
100
AcDbEntity
  8
2
  6
CONTINUOUS
 62
     7
 48
0.125
100
AcDbCircle
 10
0.521172
 20
-0.983728
 30
0.0
 40
0.018907
100
AcDbArc
 50
180.042107
 51
270.0
  0
ARC
  5
438
100
AcDbEntity
  8
2
  6
CONTINUOUS
 62
     7
 48
0.125
100
AcDbCircle
 10
0.473933
 20
-1.419476
 30
0.0
 40
0.059947
100
AcDbArc
 50
180.0
 51
296.933162
  0
ARC
  5
439
100
AcDbEntity
  8
2
  6
CONTINUOUS
 62
     7
 48
0.125
100
AcDbCircle
 10
0.473071
 20
-0.768026
 30
0.0
 40
0.059086
100
AcDbArc
 50
90.0
 51
180.0
  0
ARC
  5
43A
100
AcDbEntity
  8
2
  6
CONTINUOUS
 62
     7
 48
0.125
100
AcDbCircle
 10
0.618815
 20
-0.727848
 30
0.0
 40
0.018907
100
AcDbArc
 50
0.0
 51
90.0
  0
ARC
  5
43B
100
AcDbEntity
  8
2
  6
CONTINUOUS
 62
     7
 48
0.125
100
AcDbCircle
 10
0.618815
 20
-0.777201
 30
0.0
 40
0.018907
100
AcDbArc
 50
270.0
 51
0.0
  0
ARC
  5
43C
100
AcDbEntity
  8
2
  6
CONTINUOUS
 62
     7
 48
0.125
100
AcDbCircle
 10
0.617413
 20
-1.021543
 30
0.0
 40
0.018907
100
AcDbArc
 50
0.0
 51
90.0
  0
ARC
  5
43D
100
AcDbEntity
  8
2
  6
CONTINUOUS
 62
     7
 48
0.125
100
AcDbCircle
 10
0.617413
 20
-1.072593
 30
0.0
 40
0.018907
100
AcDbArc
 50
270.0
 51
0.0
  0
ARC
  5
43E
100
AcDbEntity
  8
2
  6
CONTINUOUS
 62
     7
 48
0.125
100
AcDbCircle
 10
0.612689
 20
-1.379354
 30
0.0
 40
0.027632
100
AcDbArc
 50
301.213151
 51
0.0
  0
ARC
  5
43F
100
AcDbEntity
  8
2
  6
CONTINUOUS
 62
     7
 48
0.125
100
AcDbCircle
 10
0.618307
 20
-1.329366
 30
0.0
 40
0.022014
100
AcDbArc
 50
0.0
 51
121.455235
  0
ARC
  5
440
100
AcDbEntity
  8
2
  6
CONTINUOUS
 62
     7
 48
0.125
100
AcDbCircle
 10
0.522799
 20
-1.337344
 30
0.0
 40
0.020274
100
AcDbArc
 50
180.042107
 51
298.83321
  0
ARC
  5
441
100
AcDbEntity
  8
2
  6
CONTINUOUS
 62
     7
 48
0.125
100
AcDbCircle
 10
0.521048
 20
-0.815016
 30
0.0
 40
0.018907
100
AcDbArc
 50
90.0
 51
180.042107
  0
ARC
  5
442
100
AcDbEntity
  8
2
  6
CONTINUOUS
 62
     7
 48
0.125
100
AcDbCircle
 10
0.521265
 20
-1.110408
 30
0.0
 40
0.018907
100
AcDbArc
 50
90.0
 51
180.042107
  0
ARC
  5
443
100
AcDbEntity
  8
2
  6
CONTINUOUS
 62
     7
 48
0.125
100
AcDbCircle
 10
0.084755
 20
-1.619861
 30
0.0
 40
0.019363
100
AcDbArc
 50
180.0
 51
286.955193
  0
ARC
  5
444
100
AcDbEntity
  8
2
  6
CONTINUOUS
 62
     7
 48
0.125
100
AcDbCircle
 10
0.320396
 20
-1.536576
 30
0.0
 40
0.017948
100
AcDbArc
 50
292.624097
 51
359.953048
  0
ARC
  5
445
100
AcDbEntity
  8
2
  6
CONTINUOUS
 62
     7
 48
0.125
100
AcDbCircle
 10
0.318376
 20
-1.481585
 30
0.0
 40
0.020014
100
AcDbArc
 50
359.953055
 51
113.070399
  0
ARC
  5
446
100
AcDbEntity
  8
2
  6
CONTINUOUS
 62
     7
 48
0.125
100
AcDbCircle
 10
0.173293
 20
-1.496576
 30
0.0
 40
0.019059
100
AcDbArc
 50
180.0
 51
289.792553
  0
ARC
  5
447
100
AcDbEntity
  8
2
  6
CONTINUOUS
 62
     7
 48
0.125
100
AcDbCircle
 10
0.135327
 20
-0.727848
 30
0.0
 40
0.018907
100
AcDbArc
 50
0.0
 51
90.0
  0
ARC
  5
448
100
AcDbEntity
  8
2
  6
CONTINUOUS
 62
     7
 48
0.125
100
AcDbCircle
 10
0.084299
 20
-0.727848
 30
0.0
 40
0.018907
100
AcDbArc
 50
90.0
 51
180.0
  0
ARC
  5
449
100
AcDbEntity
  8
2
  6
CONTINUOUS
 62
     7
 48
0.125
100
AcDbCircle
 10
-0.060771
 20
-1.6265
 30
0.0
 40
0.019885
100
AcDbArc
 50
253.609138
 51
0.309154
  0
ARC
  5
44A
100
AcDbEntity
  8
2
  6
CONTINUOUS
 62
     7
 48
0.125
100
AcDbCircle
 10
-0.060457
 20
-1.57417
 30
0.0
 40
0.019288
100
AcDbArc
 50
0.309154
 51
73.274331
  0
ARC
  5
44B
100
AcDbEntity
  8
2
  6
CONTINUOUS
 62
     7
 48
0.125
100
AcDbCircle
 10
-0.059091
 20
-0.727848
 30
0.0
 40
0.018907
100
AcDbArc
 50
6.637995
 51
90.0
  0
ARC
  5
44C
100
AcDbEntity
  8
2
  6
CONTINUOUS
 62
     7
 48
0.125
100
AcDbCircle
 10
-0.059218
 20
-0.776712
 30
0.0
 40
0.018907
100
AcDbArc
 50
270.0
 51
0.0
  0
ARC
  5
44D
100
AcDbEntity
  8
2
  6
CONTINUOUS
 62
     7
 48
0.125
100
AcDbCircle
 10
-0.190349
 20
-0.821766
 30
0.0
 40
0.026146
100
AcDbArc
 50
90.0
 51
180.0
  0
ARC
  5
44E
100
AcDbEntity
  8
2
  6
CONTINUOUS
 62
     7
 48
0.125
100
AcDbCircle
 10
-0.188589
 20
-1.481585
 30
0.0
 40
0.027907
100
AcDbArc
 50
180.0
 51
249.748099
  0
ARC
  5
44F
100
AcDbEntity
  8
2
  6
CONTINUOUS
 62
     7
 48
0.125
100
AcDbCircle
 10
-0.251989
 20
-1.517071
 30
0.0
 40
0.061644
100
AcDbArc
 50
180.0
 51
248.65939
  0
ARC
  5
450
100
AcDbEntity
  8
2
  6
CONTINUOUS
 62
     7
 48
0.125
100
AcDbCircle
 10
-0.254547
 20
-0.768026
 30
0.0
 40
0.059086
100
AcDbArc
 50
90.0
 51
180.0
  0
ARC
  5
451
100
AcDbEntity
  8
2
  6
CONTINUOUS
 62
     7
 48
0.125
100
AcDbCircle
 10
-0.852369
 20
-0.727848
 30
0.0
 40
0.018907
100
AcDbArc
 50
0.0
 51
90.0
  0
ARC
  5
452
100
AcDbEntity
  8
2
  6
CONTINUOUS
 62
     7
 48
0.125
100
AcDbCircle
 10
-0.852369
 20
-0.778613
 30
0.0
 40
0.018907
100
AcDbArc
 50
270.0
 51
0.0
  0
ARC
  5
453
100
AcDbEntity
  8
2
  6
CONTINUOUS
 62
     7
 48
0.125
100
AcDbCircle
 10
-0.802566
 20
-1.267949
 30
0.0
 40
0.021199
100
AcDbArc
 50
237.062337
 51
334.79934
  0
ARC
  5
454
100
AcDbEntity
  8
2
  6
CONTINUOUS
 62
     7
 48
0.125
100
AcDbCircle
 10
-0.778379
 20
-1.223873
 30
0.0
 40
0.018082
100
AcDbArc
 50
334.799337
 51
57.033414
  0
ARC
  5
455
100
AcDbEntity
  8
2
  6
CONTINUOUS
 62
     7
 48
0.125
100
AcDbCircle
 10
-1.086591
 20
-1.022578
 30
0.0
 40
0.063189
100
AcDbArc
 50
180.0
 51
234.131996
  0
ARC
  5
456
100
AcDbEntity
  8
2
  6
CONTINUOUS
 62
     7
 48
0.125
100
AcDbCircle
 10
-1.038747
 20
-0.997654
 30
0.0
 40
0.021956
100
AcDbArc
 50
180.0
 51
234.323673
  0
ARC
  5
457
100
AcDbEntity
  8
2
  6
CONTINUOUS
 62
     7
 48
0.125
100
AcDbCircle
 10
-1.041796
 20
-0.816428
 30
0.0
 40
0.018907
100
AcDbArc
 50
90.0
 51
180.0
  0
ARC
  5
458
100
AcDbEntity
  8
2
  6
CONTINUOUS
 62
     7
 48
0.125
100
AcDbCircle
 10
-1.090694
 20
-0.768026
 30
0.0
 40
0.059086
100
AcDbArc
 50
90.0
 51
180.0
  0
ARC
  5
459
100
AcDbEntity
  8
2
  6
CONTINUOUS
 62
     7
 48
0.125
100
AcDbCircle
 10
-0.651975
 20
0.796629
 30
0.0
 40
2.545664
100
AcDbArc
 50
296.93316
 51
299.042302
  0
ARC
  5
45A
100
AcDbEntity
  8
2
  6
CONTINUOUS
 62
     7
 48
0.125
100
AcDbCircle
 10
-3.174549
 20
4.870882
 30
0.0
 40
7.335754
100
AcDbArc
 50
302.533377
 51
305.853048
  0
ARC
  5
45B
100
AcDbEntity
  8
2
  6
CONTINUOUS
 62
     7
 48
0.125
100
AcDbCircle
 10
-0.651975
 20
0.796629
 30
0.0
 40
2.456242
100
AcDbArc
 50
289.792554
 51
293.070408
  0
ARC
  5
45C
100
AcDbEntity
  8
2
  6
CONTINUOUS
 62
     7
 48
0.125
100
AcDbCircle
 10
-3.174549
 20
4.870882
 30
0.0
 40
7.246331
100
AcDbArc
 50
300.830681
 51
301.455232
  0
ARC
  5
45D
100
AcDbEntity
  8
2
  6
CONTINUOUS
 62
     7
 48
0.125
100
AcDbCircle
 10
3.174549
 20
4.870882
 30
0.0
 40
7.335754
100
AcDbArc
 50
234.131994
 51
237.062337
  0
ARC
  5
45E
100
AcDbEntity
  8
2
  6
CONTINUOUS
 62
     7
 48
0.125
100
AcDbCircle
 10
0.651975
 20
0.796629
 30
0.0
 40
2.545664
100
AcDbArc
 50
240.957698
 51
242.29927
  0
ARC
  5
45F
100
AcDbEntity
  8
2
  6
CONTINUOUS
 62
     7
 48
0.125
100
AcDbCircle
 10
-0.651975
 20
0.796629
 30
0.0
 40
2.545664
100
AcDbArc
 50
286.955197
 51
292.624101
  0
ARC
  5
460
100
AcDbEntity
  8
2
  6
CONTINUOUS
 62
     7
 48
0.125
100
AcDbCircle
 10
-3.174549
 20
4.870882
 30
0.0
 40
7.335754
100
AcDbArc
 50
300.819649
 51
301.213149
  0
POLYLINE
  5
461
100
AcDbEntity
  8
2
  6
CONTINUOUS
 62
     7
 48
0.125
100
AcDb2dPolyline
 66
     1
 10
0.0
 20
0.0
 30
0.0
 70
   128
  0
VERTEX
  5
462
100
AcDbEntity
  8
2
  6
CONTINUOUS
 62
     7
 48
0.125
100
AcDbVertex
100
AcDb2dVertex
 10
-1.458287
 20
0.715074
 30
0.0
 40
0.0
 41
0.0
  0
VERTEX
  5
463
100
AcDbEntity
  8
2
  6
CONTINUOUS
 62
     7
 48
0.125
100
AcDbVertex
100
AcDb2dVertex
 10
-1.376622
 20
0.715074
 30
0.0
 40
0.0
 41
0.0
  0
SEQEND
  5
464
100
AcDbEntity
  8
0
  0
POLYLINE
  5
465
100
AcDbEntity
  8
2
  6
CONTINUOUS
 62
     7
 48
0.125
100
AcDb2dPolyline
 66
     1
 10
0.0
 20
0.0
 30
0.0
 70
   128
  0
VERTEX
  5
466
100
AcDbEntity
  8
2
  6
CONTINUOUS
 62
     7
 48
0.125
100
AcDbVertex
100
AcDb2dVertex
 10
1.449397
 20
-0.702817
 30
0.0
 40
0.0
 41
0.0
  0
VERTEX
  5
467
100
AcDbEntity
  8
2
  6
CONTINUOUS
 62
     7
 48
0.125
100
AcDbVertex
100
AcDb2dVertex
 10
1.367279
 20
-0.702817
 30
0.0
 40
0.0
 41
0.0
  0
SEQEND
  5
468
100
AcDbEntity
  8
0
  0
POLYLINE
  5
469
100
AcDbEntity
  8
2
  6
CONTINUOUS
 62
     7
 48
0.125
100
AcDb2dPolyline
 66
     1
 10
0.0
 20
0.0
 30
0.0
 70
   128
  0
VERTEX
  5
46A
100
AcDbEntity
  8
2
  6
CONTINUOUS
 62
     7
 48
0.125
100
AcDbVertex
100
AcDb2dVertex
 10
1.376622
 20
0.715074
 30
0.0
 40
0.0
 41
0.0
  0
VERTEX
  5
46B
100
AcDbEntity
  8
2
  6
CONTINUOUS
 62
     7
 48
0.125
100
AcDbVertex
100
AcDb2dVertex
 10
1.458287
 20
0.715074
 30
0.0
 40
0.0
 41
0.0
  0
SEQEND
  5
46C
100
AcDbEntity
  8
0
  0
POLYLINE
  5
46D
100
AcDbEntity
  8
2
  6
CONTINUOUS
 62
     7
 48
0.125
100
AcDb2dPolyline
 66
     1
 10
0.0
 20
0.0
 30
0.0
 70
   128
  0
VERTEX
  5
46E
100
AcDbEntity
  8
2
  6
CONTINUOUS
 62
     7
 48
0.125
100
AcDbVertex
100
AcDb2dVertex
 10
-1.367279
 20
-0.702817
 30
0.0
 40
0.0
 41
0.0
  0
VERTEX
  5
46F
100
AcDbEntity
  8
2
  6
CONTINUOUS
 62
     7
 48
0.125
100
AcDbVertex
100
AcDb2dVertex
 10
-1.449397
 20
-0.702817
 30
0.0
 40
0.0
 41
0.0
  0
SEQEND
  5
470
100
AcDbEntity
  8
0
  0
POLYLINE
  5
471
100
AcDbEntity
  8
2
  6
CONTINUOUS
 62
     7
 48
0.125
100
AcDb2dPolyline
 66
     1
 10
0.0
 20
0.0
 30
0.0
 70
   128
  0
VERTEX
  5
472
100
AcDbEntity
  8
2
  6
CONTINUOUS
 62
     7
 48
0.125
100
AcDbVertex
100
AcDb2dVertex
 10
-1.535374
 20
1.228273
 30
0.0
 40
0.0
 41
0.0
  0
VERTEX
  5
473
100
AcDbEntity
  8
2
  6
CONTINUOUS
 62
     7
 48
0.125
100
AcDbVertex
100
AcDb2dVertex
 10
-1.535374
 20
1.04094
 30
0.0
 40
0.0
 41
0.0
  0
SEQEND
  5
474
100
AcDbEntity
  8
0
  0
POLYLINE
  5
475
100
AcDbEntity
  8
2
  6
CONTINUOUS
 62
     7
 48
0.125
100
AcDb2dPolyline
 66
     1
 10
0.0
 20
0.0
 30
0.0
 70
   128
  0
VERTEX
  5
476
100
AcDbEntity
  8
2
  6
CONTINUOUS
 62
     7
 48
0.125
100
AcDbVertex
100
AcDb2dVertex
 10
-1.376622
 20
0.735245
 30
0.0
 40
0.0
 41
0.0
  0
VERTEX
  5
477
100
AcDbEntity
  8
2
  6
CONTINUOUS
 62
     7
 48
0.125
100
AcDbVertex
100
AcDb2dVertex
 10
-1.376622
 20
0.715074
 30
0.0
 40
0.0
 41
0.0
  0
SEQEND
  5
478
100
AcDbEntity
  8
0
  0
POLYLINE
  5
479
100
AcDbEntity
  8
2
  6
CONTINUOUS
 62
     7
 48
0.125
100
AcDb2dPolyline
 66
     1
 10
0.0
 20
0.0
 30
0.0
 70
   128
  0
VERTEX
  5
47A
100
AcDbEntity
  8
2
  6
CONTINUOUS
 62
     7
 48
0.125
100
AcDbVertex
100
AcDb2dVertex
 10
2.395292
 20
-0.498655
 30
0.0
 40
0.0
 41
0.0
  0
VERTEX
  5
47B
100
AcDbEntity
  8
2
  6
CONTINUOUS
 62
     7
 48
0.125
100
AcDbVertex
100
AcDb2dVertex
 10
2.395292
 20
0.510912
 30
0.0
 40
0.0
 41
0.0
  0
SEQEND
  5
47C
100
AcDbEntity
  8
0
  0
POLYLINE
  5
47D
100
AcDbEntity
  8
2
  6
CONTINUOUS
 62
     7
 48
0.125
100
AcDb2dPolyline
 66
     1
 10
0.0
 20
0.0
 30
0.0
 70
   128
  0
VERTEX
  5
47E
100
AcDbEntity
  8
2
  6
CONTINUOUS
 62
     7
 48
0.125
100
AcDbVertex
100
AcDb2dVertex
 10
2.476957
 20
-0.580319
 30
0.0
 40
0.0
 41
0.0
  0
VERTEX
  5
47F
100
AcDbEntity
  8
2
  6
CONTINUOUS
 62
     7
 48
0.125
100
AcDbVertex
100
AcDb2dVertex
 10
2.476957
 20
0.592577
 30
0.0
 40
0.0
 41
0.0
  0
SEQEND
  5
480
100
AcDbEntity
  8
0
  0
POLYLINE
  5
481
100
AcDbEntity
  8
2
  6
CONTINUOUS
 62
     7
 48
0.125
100
AcDb2dPolyline
 66
     1
 10
0.0
 20
0.0
 30
0.0
 70
   128
  0
VERTEX
  5
482
100
AcDbEntity
  8
2
  6
CONTINUOUS
 62
     7
 48
0.125
100
AcDbVertex
100
AcDb2dVertex
 10
1.376622
 20
0.715074
 30
0.0
 40
0.0
 41
0.0
  0
VERTEX
  5
483
100
AcDbEntity
  8
2
  6
CONTINUOUS
 62
     7
 48
0.125
100
AcDbVertex
100
AcDb2dVertex
 10
1.376622
 20
0.735245
 30
0.0
 40
0.0
 41
0.0
  0
SEQEND
  5
484
100
AcDbEntity
  8
0
  0
POLYLINE
  5
485
100
AcDbEntity
  8
2
  6
CONTINUOUS
 62
     7
 48
0.125
100
AcDb2dPolyline
 66
     1
 10
0.0
 20
0.0
 30
0.0
 70
   128
  0
VERTEX
  5
486
100
AcDbEntity
  8
2
  6
CONTINUOUS
 62
     7
 48
0.125
100
AcDbVertex
100
AcDb2dVertex
 10
1.535374
 20
1.04094
 30
0.0
 40
0.0
 41
0.0
  0
VERTEX
  5
487
100
AcDbEntity
  8
2
  6
CONTINUOUS
 62
     7
 48
0.125
100
AcDbVertex
100
AcDb2dVertex
 10
1.535374
 20
1.228273
 30
0.0
 40
0.0
 41
0.0
  0
SEQEND
  5
488
100
AcDbEntity
  8
0
  0
POLYLINE
  5
489
100
AcDbEntity
  8
2
  6
CONTINUOUS
 62
     7
 48
0.125
100
AcDb2dPolyline
 66
     1
 10
0.0
 20
0.0
 30
0.0
 70
   128
  0
VERTEX
  5
48A
100
AcDbEntity
  8
2
  6
CONTINUOUS
 62
     7
 48
0.125
100
AcDbVertex
100
AcDb2dVertex
 10
1.617039
 20
0.995092
 30
0.0
 40
0.0
 41
0.0
  0
VERTEX
  5
48B
100
AcDbEntity
  8
2
  6
CONTINUOUS
 62
     7
 48
0.125
100
AcDbVertex
100
AcDb2dVertex
 10
1.617039
 20
1.305121
 30
0.0
 40
0.0
 41
0.0
  0
SEQEND
  5
48C
100
AcDbEntity
  8
0
  0
POLYLINE
  5
48D
100
AcDbEntity
  8
2
  6
CONTINUOUS
 62
     7
 48
0.125
100
AcDb2dPolyline
 66
     1
 10
0.0
 20
0.0
 30
0.0
 70
   128
  0
VERTEX
  5
48E
100
AcDbEntity
  8
2
  6
CONTINUOUS
 62
     7
 48
0.125
100
AcDbVertex
100
AcDb2dVertex
 10
-1.617039
 20
1.305121
 30
0.0
 40
0.0
 41
0.0
  0
VERTEX
  5
48F
100
AcDbEntity
  8
2
  6
CONTINUOUS
 62
     7
 48
0.125
100
AcDbVertex
100
AcDb2dVertex
 10
-1.617039
 20
0.995092
 30
0.0
 40
0.0
 41
0.0
  0
SEQEND
  5
490
100
AcDbEntity
  8
0
  0
POLYLINE
  5
491
100
AcDbEntity
  8
2
  6
CONTINUOUS
 62
     7
 48
0.125
100
AcDb2dPolyline
 66
     1
 10
0.0
 20
0.0
 30
0.0
 70
   128
  0
VERTEX
  5
492
100
AcDbEntity
  8
2
  6
CONTINUOUS
 62
     7
 48
0.125
100
AcDbVertex
100
AcDb2dVertex
 10
-1.458287
 20
0.735245
 30
0.0
 40
0.0
 41
0.0
  0
VERTEX
  5
493
100
AcDbEntity
  8
2
  6
CONTINUOUS
 62
     7
 48
0.125
100
AcDbVertex
100
AcDb2dVertex
 10
-1.458287
 20
0.715074
 30
0.0
 40
0.0
 41
0.0
  0
SEQEND
  5
494
100
AcDbEntity
  8
0
  0
POLYLINE
  5
495
100
AcDbEntity
  8
2
  6
CONTINUOUS
 62
     7
 48
0.125
100
AcDb2dPolyline
 66
     1
 10
0.0
 20
0.0
 30
0.0
 70
   128
  0
VERTEX
  5
496
100
AcDbEntity
  8
2
  6
CONTINUOUS
 62
     7
 48
0.125
100
AcDbVertex
100
AcDb2dVertex
 10
-2.476957
 20
-0.580319
 30
0.0
 40
0.0
 41
0.0
  0
VERTEX
  5
497
100
AcDbEntity
  8
2
  6
CONTINUOUS
 62
     7
 48
0.125
100
AcDbVertex
100
AcDb2dVertex
 10
2.476957
 20
-0.580319
 30
0.0
 40
0.0
 41
0.0
  0
SEQEND
  5
498
100
AcDbEntity
  8
0
  0
POLYLINE
  5
499
100
AcDbEntity
  8
2
  6
CONTINUOUS
 62
     7
 48
0.125
100
AcDb2dPolyline
 66
     1
 10
0.0
 20
0.0
 30
0.0
 70
   128
  0
VERTEX
  5
49A
100
AcDbEntity
  8
2
  6
CONTINUOUS
 62
     7
 48
0.125
100
AcDbVertex
100
AcDb2dVertex
 10
-2.395292
 20
-0.498655
 30
0.0
 40
0.0
 41
0.0
  0
VERTEX
  5
49B
100
AcDbEntity
  8
2
  6
CONTINUOUS
 62
     7
 48
0.125
100
AcDbVertex
100
AcDb2dVertex
 10
2.395292
 20
-0.498655
 30
0.0
 40
0.0
 41
0.0
  0
SEQEND
  5
49C
100
AcDbEntity
  8
0
  0
POLYLINE
  5
49D
100
AcDbEntity
  8
2
  6
CONTINUOUS
 62
     7
 48
0.125
100
AcDb2dPolyline
 66
     1
 10
0.0
 20
0.0
 30
0.0
 70
   128
  0
VERTEX
  5
49E
100
AcDbEntity
  8
2
  6
CONTINUOUS
 62
     7
 48
0.125
100
AcDbVertex
100
AcDb2dVertex
 10
-2.395292
 20
0.510912
 30
0.0
 40
0.0
 41
0.0
  0
VERTEX
  5
49F
100
AcDbEntity
  8
2
  6
CONTINUOUS
 62
     7
 48
0.125
100
AcDbVertex
100
AcDb2dVertex
 10
-2.395292
 20
-0.498655
 30
0.0
 40
0.0
 41
0.0
  0
SEQEND
  5
4A0
100
AcDbEntity
  8
0
  0
POLYLINE
  5
4A1
100
AcDbEntity
  8
2
  6
CONTINUOUS
 62
     7
 48
0.125
100
AcDb2dPolyline
 66
     1
 10
0.0
 20
0.0
 30
0.0
 70
   128
  0
VERTEX
  5
4A2
100
AcDbEntity
  8
2
  6
CONTINUOUS
 62
     7
 48
0.125
100
AcDbVertex
100
AcDb2dVertex
 10
2.395292
 20
0.510912
 30
0.0
 40
0.0
 41
0.0
  0
VERTEX
  5
4A3
100
AcDbEntity
  8
2
  6
CONTINUOUS
 62
     7
 48
0.125
100
AcDbVertex
100
AcDb2dVertex
 10
-2.395292
 20
0.510912
 30
0.0
 40
0.0
 41
0.0
  0
SEQEND
  5
4A4
100
AcDbEntity
  8
0
  0
POLYLINE
  5
4A5
100
AcDbEntity
  8
2
  6
CONTINUOUS
 62
     7
 48
0.125
100
AcDb2dPolyline
 66
     1
 10
0.0
 20
0.0
 30
0.0
 70
   128
  0
VERTEX
  5
4A6
100
AcDbEntity
  8
2
  6
CONTINUOUS
 62
     7
 48
0.125
100
AcDbVertex
100
AcDb2dVertex
 10
-2.476957
 20
0.592577
 30
0.0
 40
0.0
 41
0.0
  0
VERTEX
  5
4A7
100
AcDbEntity
  8
2
  6
CONTINUOUS
 62
     7
 48
0.125
100
AcDbVertex
100
AcDb2dVertex
 10
-2.476957
 20
-0.580319
 30
0.0
 40
0.0
 41
0.0
  0
SEQEND
  5
4A8
100
AcDbEntity
  8
0
  0
POLYLINE
  5
4A9
100
AcDbEntity
  8
2
  6
CONTINUOUS
 62
     7
 48
0.125
100
AcDb2dPolyline
 66
     1
 10
0.0
 20
0.0
 30
0.0
 70
   128
  0
VERTEX
  5
4AA
100
AcDbEntity
  8
2
  6
CONTINUOUS
 62
     7
 48
0.125
100
AcDbVertex
100
AcDb2dVertex
 10
2.476957
 20
0.592577
 30
0.0
 40
0.0
 41
0.0
  0
VERTEX
  5
4AB
100
AcDbEntity
  8
2
  6
CONTINUOUS
 62
     7
 48
0.125
100
AcDbVertex
100
AcDb2dVertex
 10
-2.476957
 20
0.592577
 30
0.0
 40
0.0
 41
0.0
  0
SEQEND
  5
4AC
100
AcDbEntity
  8
0
  0
POLYLINE
  5
4AD
100
AcDbEntity
  8
2
  6
CONTINUOUS
 62
     7
 48
0.125
100
AcDb2dPolyline
 66
     1
 10
0.0
 20
0.0
 30
0.0
 70
   128
  0
VERTEX
  5
4AE
100
AcDbEntity
  8
2
  6
CONTINUOUS
 62
     7
 48
0.125
100
AcDbVertex
100
AcDb2dVertex
 10
1.458287
 20
0.715074
 30
0.0
 40
0.0
 41
0.0
  0
VERTEX
  5
4AF
100
AcDbEntity
  8
2
  6
CONTINUOUS
 62
     7
 48
0.125
100
AcDbVertex
100
AcDb2dVertex
 10
1.458287
 20
0.735245
 30
0.0
 40
0.0
 41
0.0
  0
SEQEND
  5
4B0
100
AcDbEntity
  8
0
  0
ARC
  5
4B1
100
AcDbEntity
  8
2
  6
CONTINUOUS
 62
     7
 48
0.125
100
AcDbCircle
 10
-1.772354
 20
4.48749
 30
0.0
 40
3.267822
100
AcDbArc
 50
274.158694
 51
302.844816
  0
ARC
  5
4B2
100
AcDbEntity
  8
2
  6
CONTINUOUS
 62
     7
 48
0.125
100
AcDbCircle
 10
-1.750323
 20
0.735245
 30
0.0
 40
0.373702
100
AcDbArc
 50
0.0
 51
54.887064
  0
ARC
  5
4B3
100
AcDbEntity
  8
2
  6
CONTINUOUS
 62
     7
 48
0.125
100
AcDbCircle
 10
-1.589272
 20
-0.721426
 30
0.0
 40
0.222772
100
AcDbArc
 50
335.14543
 51
4.791917
  0
ARC
  5
4B4
100
AcDbEntity
  8
2
  6
CONTINUOUS
 62
     7
 48
0.125
100
AcDbCircle
 10
-1.808697
 20
-0.619784
 30
0.0
 40
0.464596
100
AcDbArc
 50
313.691854
 51
335.14543
  0
ARC
  5
4B5
100
AcDbEntity
  8
2
  6
CONTINUOUS
 62
     7
 48
0.125
100
AcDbCircle
 10
3.174549
 20
4.870882
 30
0.0
 40
7.462334
100
AcDbArc
 50
231.333991
 51
239.195308
  0
ARC
  5
4B6
100
AcDbEntity
  8
2
  6
CONTINUOUS
 62
     7
 48
0.125
100
AcDbCircle
 10
0.651975
 20
0.796629
 30
0.0
 40
2.672245
100
AcDbArc
 50
240.915269
 51
255.878428
  0
ARC
  5
4B7
100
AcDbEntity
  8
2
  6
CONTINUOUS
 62
     7
 48
0.125
100
AcDbCircle
 10
-0.651975
 20
0.796629
 30
0.0
 40
2.672245
100
AcDbArc
 50
284.121572
 51
299.084731
  0
ARC
  5
4B8
100
AcDbEntity
  8
2
  6
CONTINUOUS
 62
     7
 48
0.125
100
AcDbCircle
 10
-3.174549
 20
4.870882
 30
0.0
 40
7.462334
100
AcDbArc
 50
300.804692
 51
308.666009
  0
ARC
  5
4B9
100
AcDbEntity
  8
2
  6
CONTINUOUS
 62
     7
 48
0.125
100
AcDbCircle
 10
1.808697
 20
-0.619784
 30
0.0
 40
0.464596
100
AcDbArc
 50
204.85457
 51
226.308146
  0
ARC
  5
4BA
100
AcDbEntity
  8
2
  6
CONTINUOUS
 62
     7
 48
0.125
100
AcDbCircle
 10
1.589272
 20
-0.721426
 30
0.0
 40
0.222772
100
AcDbArc
 50
175.208083
 51
204.85457
  0
ARC
  5
4BB
100
AcDbEntity
  8
2
  6
CONTINUOUS
 62
     7
 48
0.125
100
AcDbCircle
 10
1.750323
 20
0.735245
 30
0.0
 40
0.373702
100
AcDbArc
 50
125.112936
 51
180.0
  0
ARC
  5
4BC
100
AcDbEntity
  8
2
  6
CONTINUOUS
 62
     7
 48
0.125
100
AcDbCircle
 10
1.772354
 20
4.48749
 30
0.0
 40
3.267822
100
AcDbArc
 50
237.155184
 51
265.841306
  0
ARC
  5
4BD
100
AcDbEntity
  8
2
  6
CONTINUOUS
 62
     7
 48
0.125
100
AcDbCircle
 10
1.772354
 20
4.48749
 30
0.0
 40
3.186157
100
AcDbArc
 50
236.201976
 51
267.205906
  0
ARC
  5
4BE
100
AcDbEntity
  8
2
  6
CONTINUOUS
 62
     7
 48
0.125
100
AcDbCircle
 10
-1.772354
 20
4.48749
 30
0.0
 40
3.186157
100
AcDbArc
 50
272.794094
 51
303.798024
  0
ARC
  5
4BF
100
AcDbEntity
  8
2
  6
CONTINUOUS
 62
     7
 48
0.125
100
AcDbCircle
 10
-1.750323
 20
0.735245
 30
0.0
 40
0.292037
100
AcDbArc
 50
0.0
 51
62.84517
  0
ARC
  5
4C0
100
AcDbEntity
  8
2
  6
CONTINUOUS
 62
     7
 48
0.125
100
AcDbCircle
 10
-1.589272
 20
-0.721426
 30
0.0
 40
0.141107
100
AcDbArc
 50
335.145431
 51
7.578473
  0
ARC
  5
4C1
100
AcDbEntity
  8
2
  6
CONTINUOUS
 62
     7
 48
0.125
100
AcDbCircle
 10
-1.808697
 20
-0.619784
 30
0.0
 40
0.382931
100
AcDbArc
 50
299.452024
 51
335.14543
  0
ARC
  5
4C2
100
AcDbEntity
  8
2
  6
CONTINUOUS
 62
     7
 48
0.125
100
AcDbCircle
 10
3.174549
 20
4.870882
 30
0.0
 40
7.543999
100
AcDbArc
 50
230.535537
 51
239.204574
  0
ARC
  5
4C3
100
AcDbEntity
  8
2
  6
CONTINUOUS
 62
     7
 48
0.125
100
AcDbCircle
 10
0.651975
 20
0.796629
 30
0.0
 40
2.75391
100
AcDbArc
 50
240.889642
 51
256.305485
  0
ARC
  5
4C4
100
AcDbEntity
  8
2
  6
CONTINUOUS
 62
     7
 48
0.125
100
AcDbCircle
 10
-0.651975
 20
0.796629
 30
0.0
 40
2.75391
100
AcDbArc
 50
283.694515
 51
299.110358
  0
ARC
  5
4C5
100
AcDbEntity
  8
2
  6
CONTINUOUS
 62
     7
 48
0.125
100
AcDbCircle
 10
-3.174549
 20
4.870882
 30
0.0
 40
7.543999
100
AcDbArc
 50
300.795426
 51
309.464463
  0
ARC
  5
4C6
100
AcDbEntity
  8
2
  6
CONTINUOUS
 62
     7
 48
0.125
100
AcDbCircle
 10
1.808697
 20
-0.619784
 30
0.0
 40
0.382931
100
AcDbArc
 50
204.85457
 51
240.547976
  0
ARC
  5
4C7
100
AcDbEntity
  8
2
  6
CONTINUOUS
 62
     7
 48
0.125
100
AcDbCircle
 10
1.589272
 20
-0.721426
 30
0.0
 40
0.141107
100
AcDbArc
 50
172.421527
 51
204.854569
  0
ARC
  5
4C8
100
AcDbEntity
  8
2
  6
CONTINUOUS
 62
     7
 48
0.125
100
AcDbCircle
 10
1.750323
 20
0.735245
 30
0.0
 40
0.292037
100
AcDbArc
 50
117.15483
 51
180.0
  0
ENDSEC
  0
SECTION
  2
OBJECTS
  0
DICTIONARY
  5
19
100
AcDbDictionary
  3
ACAD_GROUP
350
1A
  3
ACAD_MLINESTYLE
350
1B
  0
DICTIONARY
  5
1A
102
{ACAD_REACTORS
330
19
102
}
100
AcDbDictionary
  0
DICTIONARY
  5
1B
102
{ACAD_REACTORS
330
19
102
}
100
AcDbDictionary
  3
STANDARD
350
1C
  0
MLINESTYLE
  5
1C
102
{ACAD_REACTORS
330
1B
102
}
100
AcDbMlineStyle
  2
STANDARD
 70
     0
  3

 62
     0
 51
90.0
 52
90.0
 71
     2
 49
0.5
 62
   256
  6
BYLAYER
 49
-0.5
 62
   256
  6
BYLAYER
  0
ENDSEC
  0
EOF
