  0
SECTION
  2
HEADER
  9
$ACADVER
  1
AC1012
  9
$DWGCODEPAGE
  3
dos850
  9
$INSBASE
 10
0.0
 20
0.0
 30
0.0
  9
$EXTMIN
 10
0.1905822963
 20
-0.9257302163
 30
0.0
  9
$EXTMAX
 10
39.9276684919
 20
23.7157031229
 30
0.0
  9
$LIMMIN
 10
0.0
 20
0.0
  9
$LIMMAX
 10
0.0
 20
0.0
  9
$ORTHOMODE
 70
         0
  9
$REGENMODE
 70
         1
  9
$FILLMODE
 70
         1
  9
$QTEXTMODE
 70
         0
  9
$MIRRTEXT
 70
         1
  9
$DRAGMODE
 70
         2
  9
$LTSCALE
 40
1.0
  9
$OSMODE
 70
         0
  9
$ATTMODE
 70
         1
  9
$TEXTSIZE
 40
0.16
  9
$TRACEWID
 40
0.05
  9
$TEXTSTYLE
  7
STANDARD
  9
$CLAYER
  8
0
  9
$CELTYPE
  6
CONTINUOUS
  9
$CECOLOR
 62
         3
  9
$CELTSCALE
 40
1.0
  9
$DELOBJ
 70
         1
  9
$DISPSILH
 70
         0
  9
$DIMSCALE
 40
1.0
  9
$DIMASZ
 40
0.18
  9
$DIMEXO
 40
0.0625
  9
$DIMDLI
 40
0.38
  9
$DIMRND
 40
0.0
  9
$DIMDLE
 40
0.0
  9
$DIMEXE
 40
0.25
  9
$DIMTP
 40
0.01
  9
$DIMTM
 40
-0.01
  9
$DIMTXT
 40
0.16
  9
$DIMCEN
 40
0.09
  9
$DIMTSZ
 40
0.0
  9
$DIMTOL
 70
         0
  9
$DIMLIM
 70
         0
  9
$DIMTIH
 70
         1
  9
$DIMTOH
 70
         1
  9
$DIMSE1
 70
         0
  9
$DIMSE2
 70
         0
  9
$DIMTAD
 70
         0
  9
$DIMZIN
 70
         0
  9
$DIMBLK
  1

  9
$DIMASO
 70
         1
  9
$DIMSHO
 70
         1
  9
$DIMPOST
  1

  9
$DIMAPOST
  1

  9
$DIMALT
 70
         0
  9
$DIMALTD
 70
         2
  9
$DIMALTF
 40
25.4
  9
$DIMLFAC
 40
1.0
  9
$DIMTOFL
 70
         0
  9
$DIMTVP
 40
0.0
  9
$DIMTIX
 70
         0
  9
$DIMSOXD
 70
         0
  9
$DIMSAH
 70
         0
  9
$DIMBLK1
  1

  9
$DIMBLK2
  1

  9
$DIMSTYLE
  2
STANDARD
  9
$DIMCLRD
 70
         0
  9
$DIMCLRE
 70
         0
  9
$DIMCLRT
 70
         3
  9
$DIMTFAC
 40
1.0
  9
$DIMGAP
 40
0.09
  9
$DIMJUST
 70
         0
  9
$DIMSD1
 70
         0
  9
$DIMSD2
 70
         0
  9
$DIMTOLJ
 70
         1
  9
$DIMTZIN
 70
         0
  9
$DIMALTZ
 70
         0
  9
$DIMALTTZ
 70
         0
  9
$DIMFIT
 70
         3
  9
$DIMUPT
 70
         0
  9
$DIMUNIT
 70
         2
  9
$DIMDEC
 70
         4
  9
$DIMTDEC
 70
         4
  9
$DIMALTU
 70
         2
  9
$DIMALTTD
 70
         2
  9
$DIMTXSTY
  7
STANDARD
  9
$DIMAUNIT
 70
         0
  9
$LUNITS
 70
         2
  9
$LUPREC
 70
        10
  9
$SKETCHINC
 40
0.1
  9
$FILLETRAD
 40
0.0
  9
$AUNITS
 70
         0
  9
$AUPREC
 70
         0
  9
$MENU
  1
acad
  9
$ELEVATION
 40
0.0
  9
$PELEVATION
 40
0.0
  9
$THICKNESS
 40
0.0
  9
$LIMCHECK
 70
         0
  9
$BLIPMODE
 70
         1
  9
$CHAMFERA
 40
0.0
  9
$CHAMFERB
 40
0.0
  9
$CHAMFERC
 40
0.0
  9
$CHAMFERD
 40
0.0
  9
$SKPOLY
 70
         0
  9
$TDCREATE
 40
0.000000000
  9
$TDUPDATE
 40
0.000000000
  9
$TDINDWG
 40
0.0000000000
  9
$TDUSRTIMER
 40
0.0000000000
  9
$USRTIMER
 70
         1
  9
$ANGBASE
 50
0.0
  9
$ANGDIR
 70
         0
  9
$PDMODE
 70
         2
  9
$PDSIZE
 40
0.0
  9
$PLINEWID
 40
0.0
  9
$COORDS
 70
         0
  9
$SPLFRAME
 70
         0
  9
$SPLINETYPE
 70
         6
  9
$SPLINESEGS
 70
         8
  9
$ATTDIA
 70
         0
  9
$ATTREQ
 70
         1
  9
$HANDLING
 70
         1
  9
$HANDSEED
  5
599
  9
$SURFTAB1
 70
         6
  9
$SURFTAB2
 70
         6
  9
$SURFTYPE
 70
         6
  9
$SURFU
 70
         6
  9
$SURFV
 70
         6
  9
$UCSNAME
  2

  9
$UCSORG
 10
0.0
 20
0.0
 30
0.0
  9
$UCSXDIR
 10
1.0
 20
0.0
 30
0.0
  9
$UCSYDIR
 10
0.0
 20
1.0
 30
0.0
  9
$PUCSNAME
  2

  9
$PUCSORG
 10
0.0
 20
0.0
 30
0.0
  9
$PUCSXDIR
 10
1.0
 20
0.0
 30
0.0
  9
$PUCSYDIR
 10
0.0
 20
1.0
 30
0.0
  9
$USERI1
 70
         0
  9
$USERI2
 70
         0
  9
$USERI3
 70
         0
  9
$USERI4
 70
         0
  9
$USERI5
 70
         0
  9
$USERR1
 40
0.0
  9
$USERR2
 40
0.0
  9
$USERR3
 40
0.0
  9
$USERR4
 40
0.0
  9
$USERR5
 40
0.0
  9
$WORLDVIEW
 70
         1
  9
$SHADEDGE
 70
         3
  9
$SHADEDIF
 70
        70
  9
$TILEMODE
 70
         1
  9
$MAXACTVP
 70
        16
  9
$PINSBASE
 10
0.0
 20
0.0
 30
0.0
  9
$PLIMCHECK
 70
         0
  9
$PEXTMIN
 10
1.0000000000E+20
 20
1.0000000000E+20
 30
1.0000000000E+20
  9
$PEXTMAX
 10
-1.0000000000E+20
 20
-1.0000000000E+20
 30
-1.0000000000E+20
  9
$PLIMMIN
 10
0.0
 20
0.0
  9
$PLIMMAX
 10
12.0
 20
9.0
  9
$UNITMODE
 70
         0
  9
$VISRETAIN
 70
         0
  9
$PLINEGEN
 70
         1
  9
$PSLTSCALE
 70
         0
  9
$TREEDEPTH
 70
      3020
  9
$PICKSTYLE
 70
         1
  9
$CMLSTYLE
  2
STANDARD
  9
$CMLJUST
 70
         0
  9
$CMLSCALE
 40
1.0
  9
$SAVEIMAGES
 70
         0
  0
ENDSEC
  0
SECTION
  2
CLASSES
  0
CLASS
  1
LWPOLYLINE
  2
AcDbPolyline
  3
"AutoCAD"
 90
        0
280
         0
281
         1
  0
CLASS
  1
IMAGE
  2
AcDbRasterImage
  3
ISM
 90
      127
280
         0
281
         1
  0
CLASS
  1
OLE2FRAME
  2
AcDbOle2Frame
  3
""
 90
        0
280
         0
281
         1
  0
CLASS
  1
HATCH
  2
AcDbHatch
  3
"ACAD_SEDONA"
 90
        0
280
         0
281
         1
  0
CLASS
  1
DICTIONARYVAR
  2
AcDbDictionaryVar
  3
"AutoCAD"
 90
        0
280
         0
281
         0
  0
CLASS
  1
RASTERVARIABLES
  2
AcDbRasterVariables
  3
ISM
 90
        0
280
         0
281
         0
  0
CLASS
  1
IMAGEDEF
  2
AcDbRasterImageDef
  3
ISM
 90
        0
280
         0
281
         0
  0
CLASS
  1
IMAGEDEF_REACTOR
  2
AcDbRasterImageDefReactor
  3
ISM
 90
        1
280
         0
281
         0
  0
CLASS
  1
IDBUFFER
  2
AcDbIdBuffer
  3
"Acad"
 90
        0
280
         0
281
         0
  0
CLASS
  1
SPATIAL_FILTER
  2
AcDbSpatialFilter
  3
"Acad"
 90
        0
280
         0
281
         0
  0
CLASS
  1
XRECORD
  2
AcDbXrecord
  3
"<Built In>"
 90
        0
280
         0
281
         0
  0
CLASS
  1
SORTENTSTABLE
  2
AcDbSortentsTable
  3
"AutoCAD"
 90
        0
280
         0
281
         0
  0
CLASS
  1
LAYER_INDEX
  2
AcDbLayerIndex
  3
"Acad"
 90
        0
280
         0
281
         0
  0
CLASS
  1
SPATIAL_INDEX
  2
AcDbSpatialIndex
  3
"Acad"
 90
        0
280
         0
281
         0
  0
CLASS
  1
OBJECT_PTR
  2
CAseDLPNTableRecord
  3
"ASE-LPNTableRecord"
 90
        1
280
         0
281
         0
  0
ENDSEC
  0
SECTION
  2
TABLES
  0
TABLE
  2
VPORT
  5
7
100
AcDbSymbolTable
 70
         1
  0
VPORT
  5
15
100
AcDbSymbolTableRecord
100
AcDbViewportTableRecord
  2
*ACTIVE
 70
         0
 10
0.0
 20
0.0
 11
1.0
 21
1.0
 12
20.0591253941
 22
11.3949864533
 13
0.0
 23
0.0
 14
1.0
 24
1.0
 15
0.0
 25
0.0
 16
0.0
 26
0.0
 36
1.0
 17
0.0
 27
0.0
 37
0.0
 40
24.6414333392
 41
1.6126126126
 42
50.0
 43
0.0
 44
0.0
 50
0.0
 51
0.0
 71
         0
 72
       100
 73
         1
 74
         1
 75
         0
 76
         0
 77
         0
 78
         0
  0
ENDTAB
  0
TABLE
  2
LTYPE
  5
4
100
AcDbSymbolTable
 70
         6
  0
LTYPE
  5
11
100
AcDbSymbolTableRecord
100
AcDbLinetypeTableRecord
  2
BYBLOCK
 70
         0
  3

 72
        65
 73
         0
 40
0.0
  0
LTYPE
  5
12
100
AcDbSymbolTableRecord
100
AcDbLinetypeTableRecord
  2
BYLAYER
 70
         0
  3

 72
        65
 73
         0
 40
0.0
  0
LTYPE
  5
13
100
AcDbSymbolTableRecord
100
AcDbLinetypeTableRecord
  2
CONTINUOUS
 70
         0
  3
Solid line
 72
        65
 73
         0
 40
0.0
  0
LTYPE
  5
1D
100
AcDbSymbolTableRecord
100
AcDbLinetypeTableRecord
  2
DASHED
 70
         0
  3
_ _ _ _ _ _ _ _ _ _ _ _ _ _ _ _
 72
        65
 73
         2
 40
0.2
 49
0.1
 74
         0
 49
-0.1
 74
         0
  0
LTYPE
  5
1E
100
AcDbSymbolTableRecord
100
AcDbLinetypeTableRecord
  2
CENTER
 70
         0
  3
___ _ ___ _ ___ _ ___ _ ___ _ ___ _ ___ _ ___ _
 72
        65
 73
         4
 40
0.95
 49
0.625
 74
         0
 49
-0.125
 74
         0
 49
0.075
 74
         0
 49
-0.125
 74
         0
  0
LTYPE
  5
1F
100
AcDbSymbolTableRecord
100
AcDbLinetypeTableRecord
  2
PHANTOM
 70
         0
  3
______  __  __  ______  __  __  ______  __  __  
 72
        65
 73
         6
 40
1.025
 49
0.625
 74
         0
 49
-0.125
 74
         0
 49
0.075
 74
         0
 49
-0.125
 74
         0
 49
0.075
 74
         0
 49
-0.125
 74
         0
  0
ENDTAB
  0
TABLE
  2
LAYER
  5
2
100
AcDbSymbolTable
 70
         3
  0
LAYER
  5
14
100
AcDbSymbolTableRecord
100
AcDbLayerTableRecord
  2
0
 70
         0
 62
         7
  6
CONTINUOUS
  0
LAYER
  5
21
100
AcDbSymbolTableRecord
100
AcDbLayerTableRecord
  2
3
 70
         0
 62
         7
  6
CONTINUOUS
  0
LAYER
  5
22
100
AcDbSymbolTableRecord
100
AcDbLayerTableRecord
  2
CK_LEVEL_2
 70
         0
 62
         7
  6
CONTINUOUS
  0
ENDTAB
  0
TABLE
  2
STYLE
  5
3
100
AcDbSymbolTable
 70
         1
  0
STYLE
  5
17
100
AcDbSymbolTableRecord
100
AcDbTextStyleTableRecord
  2
STANDARD
 70
         0
 40
0.0
 41
1.0
 50
0.0
 71
         0
 42
0.0
  3
txt
  4

  0
ENDTAB
  0
TABLE
  2
VIEW
  5
5
100
AcDbSymbolTable
 70
         0
  0
ENDTAB
  0
TABLE
  2
UCS
  5
6
100
AcDbSymbolTable
 70
         3
  0
UCS
  5
20
100
AcDbSymbolTableRecord
100
AcDbUCSTableRecord
  2
CK_VIEW_1
 70
         0
 10
0.0
 20
0.0
 30
1.0
 11
1.0
 21
0.0
 31
0.0
 12
0.0
 22
1.0
 32
0.0
  0
UCS
  5
513
100
AcDbSymbolTableRecord
100
AcDbUCSTableRecord
  2
CK_VIEW_1
 70
         0
 10
0.0
 20
0.0
 30
1.0
 11
1.0
 21
0.0
 31
0.0
 12
0.0
 22
1.0
 32
0.0
  0
UCS
  5
528
100
AcDbSymbolTableRecord
100
AcDbUCSTableRecord
  2
CK_VIEW_1
 70
         0
 10
0.0
 20
0.0
 30
1.0
 11
1.0
 21
0.0
 31
0.0
 12
0.0
 22
1.0
 32
0.0
  0
ENDTAB
  0
TABLE
  2
APPID
  5
8
100
AcDbSymbolTable
 70
         1
  0
APPID
  5
16
100
AcDbSymbolTableRecord
100
AcDbRegAppTableRecord
  2
ACAD
 70
         0
  0
ENDTAB
  0
TABLE
  2
DIMSTYLE
  5
9
100
AcDbSymbolTable
 70
         1
  0
DIMSTYLE
105
18
100
AcDbSymbolTableRecord
100
AcDbDimStyleTableRecord
  2
STANDARD
 70
         0
  3

  4

  5

  6

  7

 40
1.0
 41
0.18
 42
0.0625
 43
0.38
 44
0.18
 45
0.0
 46
0.0
 47
0.0
 48
0.0
140
0.18
141
0.09
142
0.0
143
25.4
144
1.0
145
0.0
146
1.0
147
0.09
 71
         0
 72
         0
 73
         1
 74
         1
 75
         0
 76
         0
 77
         0
 78
         0
170
         0
171
         2
172
         0
173
         0
174
         0
175
         0
176
         0
177
         0
178
         0
270
         2
271
         4
272
         4
273
         2
274
         2
340
17
275
         0
280
         0
281
         0
282
         0
283
         1
284
         0
285
         0
286
         0
287
         0
288
         0
  0
ENDTAB
  0
TABLE
  2
BLOCK_RECORD
  5
1
100
AcDbSymbolTable
 70
         2
  0
BLOCK_RECORD
  5
A
100
AcDbSymbolTableRecord
100
AcDbBlockTableRecord
  2
*MODEL_SPACE
  0
BLOCK_RECORD
  5
B
100
AcDbSymbolTableRecord
100
AcDbBlockTableRecord
  2
*PAPER_SPACE
  0
BLOCK_RECORD
  5
501
100
AcDbSymbolTableRecord
100
AcDbBlockTableRecord
  2
*X0
  0
BLOCK_RECORD
  5
516
100
AcDbSymbolTableRecord
100
AcDbBlockTableRecord
  2
*X1
  0
ENDTAB
  0
ENDSEC
  0
SECTION
  2
BLOCKS
  0
BLOCK
  5
D
100
AcDbEntity
  8
0
100
AcDbBlockBegin
  2
*MODEL_SPACE
 70
         0
 10
0.0
 20
0.0
 30
0.0
  3
*MODEL_SPACE
  1

  0
ENDBLK
  5
E
100
AcDbEntity
  8
0
100
AcDbBlockEnd
  0
BLOCK
  5
F
100
AcDbEntity
 67
         1
  8
0
100
AcDbBlockBegin
  2
*PAPER_SPACE
 70
         0
 10
0.0
 20
0.0
 30
0.0
  3
*PAPER_SPACE
  1

  0
ENDBLK
  5
10
100
AcDbEntity
 67
         1
  8
0
100
AcDbBlockEnd
  0
BLOCK
  5
502
100
AcDbEntity
  8
0
100
AcDbBlockBegin
  2
*X0
 70
        65
 10
0.0
 20
0.0
 30
0.0
  3
*X0
  1

  0
LINE
  5
503
100
AcDbEntity
  8
3
  6
CONTINUOUS
 62
        15
100
AcDbLine
 10
26.0660221315
 20
6.3928857111
 30
0.0
 11
26.0829944312
 21
6.4098580108
 31
0.0
  0
LINE
  5
504
100
AcDbEntity
  8
3
  6
CONTINUOUS
 62
        15
100
AcDbLine
 10
26.0235957247
 20
6.3928857111
 30
0.0
 11
26.0786106087
 21
6.4479005952
 31
0.0
  0
LINE
  5
505
100
AcDbEntity
  8
3
  6
CONTINUOUS
 62
        15
100
AcDbLine
 10
25.9811693178
 20
6.3928857111
 30
0.0
 11
26.0705153744
 21
6.4822317678
 31
0.0
  0
LINE
  5
506
100
AcDbEntity
  8
3
  6
CONTINUOUS
 62
        15
100
AcDbLine
 10
25.9387429109
 20
6.3928857111
 30
0.0
 11
26.0594195908
 21
6.5135623911
 31
0.0
  0
LINE
  5
507
100
AcDbEntity
  8
3
  6
CONTINUOUS
 62
        15
100
AcDbLine
 10
25.896316504
 20
6.3928857111
 30
0.0
 11
26.0457505267
 21
6.5423197338
 31
0.0
  0
LINE
  5
508
100
AcDbEntity
  8
3
  6
CONTINUOUS
 62
        15
100
AcDbLine
 10
25.8538900972
 20
6.3928857111
 30
0.0
 11
26.0297747606
 21
6.5687703745
 31
0.0
  0
LINE
  5
509
100
AcDbEntity
  8
3
  6
CONTINUOUS
 62
        15
100
AcDbLine
 10
25.8114636903
 20
6.3928857111
 30
0.0
 11
26.0116558348
 21
6.5930778557
 31
0.0
  0
LINE
  5
50A
100
AcDbEntity
  8
3
  6
CONTINUOUS
 62
        15
100
AcDbLine
 10
25.7690372834
 20
6.3928857111
 30
0.0
 11
25.9914830855
 21
6.6153315133
 31
0.0
  0
LINE
  5
50B
100
AcDbEntity
  8
3
  6
CONTINUOUS
 62
        15
100
AcDbLine
 10
25.768452
 20
6.4347268346
 30
0.0
 11
25.9692854238
 21
6.6355602584
 31
0.0
  0
LINE
  5
50C
100
AcDbEntity
  8
3
  6
CONTINUOUS
 62
        15
100
AcDbLine
 10
25.768452
 20
6.4771532415
 30
0.0
 11
25.9450355086
 21
6.65373675
 31
0.0
  0
LINE
  5
50D
100
AcDbEntity
  8
3
  6
CONTINUOUS
 62
        15
100
AcDbLine
 10
25.768452
 20
6.5195796483
 30
0.0
 11
25.918645804
 21
6.6697734524
 31
0.0
  0
LINE
  5
50E
100
AcDbEntity
  8
3
  6
CONTINUOUS
 62
        15
100
AcDbLine
 10
25.768452
 20
6.5620060552
 30
0.0
 11
25.8899551127
 21
6.6835091679
 31
0.0
  0
LINE
  5
50F
100
AcDbEntity
  8
3
  6
CONTINUOUS
 62
        15
100
AcDbLine
 10
25.768452
 20
6.6044324621
 30
0.0
 11
25.8587002893
 21
6.6946807513
 31
0.0
  0
LINE
  5
510
100
AcDbEntity
  8
3
  6
CONTINUOUS
 62
        15
100
AcDbLine
 10
25.768452
 20
6.6468588689
 30
0.0
 11
25.8244597073
 21
6.7028665762
 31
0.0
  0
LINE
  5
511
100
AcDbEntity
  8
3
  6
CONTINUOUS
 62
        15
100
AcDbLine
 10
25.768452
 20
6.6892852758
 30
0.0
 11
25.786533078
 21
6.7073663538
 31
0.0
  0
ENDBLK
  5
512
100
AcDbEntity
  8
0
  6
CONTINUOUS
100
AcDbBlockEnd
  0
BLOCK
  5
517
100
AcDbEntity
  8
0
100
AcDbBlockBegin
  2
*X1
 70
        65
 10
0.0
 20
0.0
 30
0.0
  3
*X1
  1

  0
LINE
  5
518
100
AcDbEntity
  8
3
  6
CONTINUOUS
 62
        15
100
AcDbLine
 10
17.891025434
 20
6.7078670735
 30
0.0
 11
17.894452
 21
6.7044405075
 31
0.0
  0
LINE
  5
519
100
AcDbEntity
  8
3
  6
CONTINUOUS
 62
        15
100
AcDbLine
 10
17.8515197793
 20
6.7049463213
 30
0.0
 11
17.894452
 21
6.6620141006
 31
0.0
  0
LINE
  5
51A
100
AcDbEntity
  8
3
  6
CONTINUOUS
 62
        15
100
AcDbLine
 10
17.8160634472
 20
6.6979762465
 30
0.0
 11
17.894452
 21
6.6195876938
 31
0.0
  0
LINE
  5
51B
100
AcDbEntity
  8
3
  6
CONTINUOUS
 62
        15
100
AcDbLine
 10
17.7838014055
 20
6.6878118814
 30
0.0
 11
17.894452
 21
6.5771612869
 31
0.0
  0
LINE
  5
51C
100
AcDbEntity
  8
3
  6
CONTINUOUS
 62
        15
100
AcDbLine
 10
17.7542316027
 20
6.6749552773
 30
0.0
 11
17.894452
 21
6.53473488
 31
0.0
  0
LINE
  5
51D
100
AcDbEntity
  8
3
  6
CONTINUOUS
 62
        15
100
AcDbLine
 10
17.7270429568
 20
6.6597175163
 30
0.0
 11
17.894452
 21
6.4923084732
 31
0.0
  0
LINE
  5
51E
100
AcDbEntity
  8
3
  6
CONTINUOUS
 62
        15
100
AcDbLine
 10
17.7020421563
 20
6.64229191
 30
0.0
 11
17.894452
 21
6.4498820663
 31
0.0
  0
LINE
  5
51F
100
AcDbEntity
  8
3
  6
CONTINUOUS
 62
        15
100
AcDbLine
 10
17.6791175025
 20
6.6227901569
 30
0.0
 11
17.894452
 21
6.4074556594
 31
0.0
  0
LINE
  5
520
100
AcDbEntity
  8
3
  6
CONTINUOUS
 62
        15
100
AcDbLine
 10
17.6582210392
 20
6.6012602133
 30
0.0
 11
17.8665955414
 21
6.3928857111
 31
0.0
  0
LINE
  5
521
100
AcDbEntity
  8
3
  6
CONTINUOUS
 62
        15
100
AcDbLine
 10
17.6393615284
 20
6.5776933173
 30
0.0
 11
17.8241691345
 21
6.3928857111
 31
0.0
  0
LINE
  5
522
100
AcDbEntity
  8
3
  6
CONTINUOUS
 62
        15
100
AcDbLine
 10
17.6226057051
 20
6.5520227337
 30
0.0
 11
17.7817427276
 21
6.3928857111
 31
0.0
  0
LINE
  5
523
100
AcDbEntity
  8
3
  6
CONTINUOUS
 62
        15
100
AcDbLine
 10
17.6080882546
 20
6.5241137773
 30
0.0
 11
17.7393163208
 21
6.3928857111
 31
0.0
  0
LINE
  5
524
100
AcDbEntity
  8
3
  6
CONTINUOUS
 62
        15
100
AcDbLine
 10
17.5960342731
 20
6.4937413519
 30
0.0
 11
17.6968899139
 21
6.3928857111
 31
0.0
  0
LINE
  5
525
100
AcDbEntity
  8
3
  6
CONTINUOUS
 62
        15
100
AcDbLine
 10
17.5868041343
 20
6.4605450839
 30
0.0
 11
17.654463507
 21
6.3928857111
 31
0.0
  0
LINE
  5
526
100
AcDbEntity
  8
3
  6
CONTINUOUS
 62
        15
100
AcDbLine
 10
17.5809861509
 20
6.4239366604
 30
0.0
 11
17.6120371002
 21
6.3928857111
 31
0.0
  0
ENDBLK
  5
527
100
AcDbEntity
  8
0
  6
CONTINUOUS
100
AcDbBlockEnd
  0
ENDSEC
  0
SECTION
  2
ENTITIES
  0
TEXT
  5
23
100
AcDbEntity
  8
CK_LEVEL_2
  6
CONTINUOUS
 62
         1
100
AcDbText
 10
31.047872694
 20
19.0883371305
 30
0.0
 40
0.75
  1
 KURT
 41
0.9
100
AcDbText
  0
TEXT
  5
24
100
AcDbEntity
  8
CK_LEVEL_2
  6
CONTINUOUS
 62
         1
100
AcDbText
 10
31.047872694
 20
17.8883371305
 30
0.0
 40
0.75
  1
SCD430
 41
0.9
100
AcDbText
  0
LINE
  5
25
100
AcDbEntity
  8
3
  6
CENTER
 62
         4
100
AcDbLine
 10
9.9556886911
 20
6.3932857111
 30
0.0
 11
3.2005723157
 21
6.3932857111
 31
0.0
  0
LINE
  5
26
100
AcDbEntity
  8
3
  6
CENTER
 62
         5
100
AcDbLine
 10
4.9604716235
 20
9.7791362613
 30
0.0
 11
6.446312
 21
9.7791362613
 31
0.0
  0
LINE
  5
27
100
AcDbEntity
  8
3
  6
CENTER
 62
         4
100
AcDbLine
 10
9.550172
 20
12.8297162241
 30
0.0
 11
9.550172
 21
18.481148013
 31
0.0
  0
LINE
  5
28
100
AcDbEntity
  8
3
  6
CONTINUOUS
 62
         5
100
AcDbLine
 10
6.416312
 20
9.4041362613
 30
0.0
 11
6.4192997898
 21
9.4414836337
 31
0.0
  0
LINE
  5
29
100
AcDbEntity
  8
3
  6
CONTINUOUS
 62
         5
100
AcDbLine
 10
6.4192997898
 20
10.1167888889
 30
0.0
 11
6.416312
 21
10.1541362613
 31
0.0
  0
LINE
  5
2A
100
AcDbEntity
  8
3
  6
CENTER
 62
       221
100
AcDbLine
 10
5.877312
 20
13.4315462613
 30
0.0
 11
5.877312
 21
14.0626162613
 31
0.0
  0
ARC
  5
2B
100
AcDbEntity
  8
3
  6
CONTINUOUS
 62
         5
100
AcDbCircle
 10
5.877312
 20
9.7791362613
 30
0.0
 40
0.65625
100
AcDbArc
 50
34.849904579
 51
145.150095421
  0
LINE
  5
2C
100
AcDbEntity
  8
3
  6
CONTINUOUS
 62
         5
100
AcDbLine
 10
6.4158647481
 20
10.1541362613
 30
0.0
 11
5.3387592519
 21
10.1541362613
 31
0.0
  0
LINE
  5
2D
100
AcDbEntity
  8
3
  6
CONTINUOUS
 62
         5
100
AcDbLine
 10
6.4158647481
 20
9.4041362613
 30
0.0
 11
5.3387592519
 21
9.4041362613
 31
0.0
  0
LINE
  5
2E
100
AcDbEntity
  8
3
  6
DASHED
 62
         5
100
AcDbLine
 10
6.446312
 20
9.7791362613
 30
0.0
 11
6.4192997898
 21
10.1167888889
 31
0.0
  0
LINE
  5
2F
100
AcDbEntity
  8
3
  6
CONTINUOUS
 62
         5
100
AcDbLine
 10
5.308312
 20
9.7791362613
 30
0.0
 11
5.338312
 21
10.1541362613
 31
0.0
  0
ARC
  5
30
100
AcDbEntity
  8
3
  6
CONTINUOUS
 62
         5
100
AcDbCircle
 10
5.877312
 20
9.7791362613
 30
0.0
 40
0.65625
100
AcDbArc
 50
214.849904579
 51
325.150095421
  0
LINE
  5
31
100
AcDbEntity
  8
3
  6
CONTINUOUS
 62
         5
100
AcDbLine
 10
5.688312
 20
10.1226362613
 30
0.0
 11
5.688312
 21
10.1541362613
 31
0.0
  0
LINE
  5
32
100
AcDbEntity
  8
3
  6
CONTINUOUS
 62
         5
100
AcDbLine
 10
6.066312
 20
10.1226362613
 30
0.0
 11
6.066312
 21
10.1541362613
 31
0.0
  0
LINE
  5
33
100
AcDbEntity
  8
3
  6
CONTINUOUS
 62
         5
100
AcDbLine
 10
5.688312
 20
9.4041362613
 30
0.0
 11
5.688312
 21
9.4356362613
 31
0.0
  0
LINE
  5
34
100
AcDbEntity
  8
3
  6
CONTINUOUS
 62
         5
100
AcDbLine
 10
6.066312
 20
9.4041362613
 30
0.0
 11
6.066312
 21
9.4356362613
 31
0.0
  0
ARC
  5
35
100
AcDbEntity
  8
3
  6
CONTINUOUS
 62
         4
100
AcDbCircle
 10
11.377312
 20
9.7791362613
 30
0.0
 40
0.5
100
AcDbArc
 50
270.0
 51
450.0
  0
LINE
  5
36
100
AcDbEntity
  8
3
  6
CONTINUOUS
 62
         4
100
AcDbLine
 10
9.9031858519
 20
10.0008921435
 30
0.0
 11
11.377312
 21
10.2791362613
 31
0.0
  0
LINE
  5
37
100
AcDbEntity
  8
3
  6
CONTINUOUS
 62
         4
100
AcDbLine
 10
9.9031858519
 20
9.5573803791
 30
0.0
 11
11.377312
 21
9.2791362613
 31
0.0
  0
ARC
  5
38
100
AcDbEntity
  8
3
  6
CONTINUOUS
 62
         4
100
AcDbCircle
 10
9.8568166512
 20
10.2465543042
 30
0.0
 40
0.25
100
AcDbArc
 50
268.6641491828
 51
280.6889322982
  0
ARC
  5
39
100
AcDbEntity
  8
3
  6
CONTINUOUS
 62
         4
100
AcDbCircle
 10
9.8568166512
 20
9.3117182183
 30
0.0
 40
0.25
100
AcDbArc
 50
79.3110677018
 51
91.3358508172
  0
LINE
  5
3A
100
AcDbEntity
  8
3
  6
CONTINUOUS
 62
         4
100
AcDbLine
 10
5.472312
 20
9.7791362613
 30
0.0
 11
5.502312
 21
10.1226362613
 31
0.0
  0
LINE
  5
3B
100
AcDbEntity
  8
3
  6
CONTINUOUS
 62
         4
100
AcDbLine
 10
6.252312
 20
10.1226362613
 30
0.0
 11
5.502312
 21
10.1226362613
 31
0.0
  0
LINE
  5
3C
100
AcDbEntity
  8
3
  6
CONTINUOUS
 62
         4
100
AcDbLine
 10
6.252312
 20
9.4356362613
 30
0.0
 11
5.502312
 21
9.4356362613
 31
0.0
  0
LINE
  5
3D
100
AcDbEntity
  8
3
  6
CONTINUOUS
 62
         4
100
AcDbLine
 10
9.8509884305
 20
9.9966222498
 30
0.0
 11
6.252312
 21
10.1226362613
 31
0.0
  0
LINE
  5
3E
100
AcDbEntity
  8
3
  6
CONTINUOUS
 62
         4
100
AcDbLine
 10
6.252312
 20
9.4356362613
 30
0.0
 11
9.8509884305
 21
9.5616502727
 31
0.0
  0
ARC
  5
3F
100
AcDbEntity
  8
3
  6
CONTINUOUS
 62
         4
100
AcDbCircle
 10
6.6156407079
 20
9.7791362613
 30
0.0
 40
0.5
100
AcDbArc
 50
136.6069004804
 51
223.3930995196
  0
LINE
  5
40
100
AcDbEntity
  8
3
  6
CONTINUOUS
 62
         4
100
AcDbLine
 10
5.502312
 20
9.4356362613
 30
0.0
 11
5.472312
 21
9.7791362613
 31
0.0
  0
LINE
  5
41
100
AcDbEntity
  8
3
  6
CONTINUOUS
 62
         5
100
AcDbLine
 10
5.338312
 20
9.4041362613
 30
0.0
 11
5.308312
 21
9.7791362613
 31
0.0
  0
LINE
  5
42
100
AcDbEntity
  8
3
  6
DASHED
 62
         5
100
AcDbLine
 10
6.4192997898
 20
9.4414836337
 30
0.0
 11
6.446312
 21
9.7791362613
 31
0.0
  0
LINE
  5
43
100
AcDbEntity
  8
3
  6
CENTER
 62
         5
100
AcDbLine
 10
5.877312
 20
8.8103820336
 30
0.0
 11
5.877312
 21
10.6094154171
 31
0.0
  0
LINE
  5
44
100
AcDbEntity
  8
3
  6
CENTER
 62
         4
100
AcDbLine
 10
6.446312
 20
9.7791362613
 30
0.0
 11
12.3261506084
 21
9.7791362613
 31
0.0
  0
LINE
  5
45
100
AcDbEntity
  8
3
  6
CENTER
 62
         5
100
AcDbLine
 10
9.550172
 20
5.3800449202
 30
0.0
 11
9.550172
 21
7.2910816039
 31
0.0
  0
LINE
  5
46
100
AcDbEntity
  8
3
  6
CENTER
 62
         5
100
AcDbLine
 10
9.550172
 20
18.4575911709
 30
0.0
 11
9.550172
 21
19.5838877084
 31
0.0
  0
LINE
  5
47
100
AcDbEntity
  8
3
  6
CENTER
 62
         5
100
AcDbLine
 10
11.2910287282
 20
19.0636862613
 30
0.0
 11
8.9318884203
 21
19.0636862613
 31
0.0
  0
LINE
  5
48
100
AcDbEntity
  8
3
  6
CENTER
 62
         5
100
AcDbLine
 10
11.3588736077
 20
6.3932857111
 30
0.0
 11
9.9556886911
 21
6.3932857111
 31
0.0
  0
LINE
  5
49
100
AcDbEntity
  8
3
  6
CONTINUOUS
 62
         5
100
AcDbLine
 10
11.144421
 20
6.8624882738
 30
0.0
 11
11.144421
 21
5.9244882738
 31
0.0
  0
LINE
  5
4A
100
AcDbEntity
  8
3
  6
CONTINUOUS
 62
         5
100
AcDbLine
 10
9.206421
 20
5.7372382738
 30
0.0
 11
10.144421
 21
5.7372382738
 31
0.0
  0
LINE
  5
4B
100
AcDbEntity
  8
3
  6
CONTINUOUS
 62
         5
100
AcDbLine
 10
9.206421
 20
7.0497382738
 30
0.0
 11
10.144421
 21
7.0497382738
 31
0.0
  0
LINE
  5
4C
100
AcDbEntity
  8
3
  6
CONTINUOUS
 62
         5
100
AcDbLine
 10
9.144421
 20
6.9877382738
 30
0.0
 11
9.144421
 21
6.7684882738
 31
0.0
  0
LINE
  5
4D
100
AcDbEntity
  8
3
  6
CONTINUOUS
 62
         5
100
AcDbLine
 10
10.144421
 20
7.0497382738
 30
0.0
 11
10.144421
 21
6.9244882738
 31
0.0
  0
LINE
  5
4E
100
AcDbEntity
  8
3
  6
CONTINUOUS
 62
         5
100
AcDbLine
 10
10.393921
 20
6.9244882738
 30
0.0
 11
10.393921
 21
5.8624882738
 31
0.0
  0
LINE
  5
4F
100
AcDbEntity
  8
3
  6
CONTINUOUS
 62
         5
100
AcDbLine
 10
10.393921
 20
5.8624882738
 30
0.0
 11
11.082421
 21
5.8624882738
 31
0.0
  0
LINE
  5
50
100
AcDbEntity
  8
3
  6
CONTINUOUS
 62
         5
100
AcDbLine
 10
10.393921
 20
6.9244882738
 30
0.0
 11
11.082421
 21
6.9244882738
 31
0.0
  0
LINE
  5
51
100
AcDbEntity
  8
3
  6
CONTINUOUS
 62
         5
100
AcDbLine
 10
10.393921
 20
5.8624882738
 30
0.0
 11
10.144421
 21
5.7372382738
 31
0.0
  0
LINE
  5
52
100
AcDbEntity
  8
3
  6
CONTINUOUS
 62
         5
100
AcDbLine
 10
10.393921
 20
6.9244882738
 30
0.0
 11
10.144421
 21
7.0497382738
 31
0.0
  0
LINE
  5
53
100
AcDbEntity
  8
3
  6
CONTINUOUS
 62
         5
100
AcDbLine
 10
10.018171
 20
6.3934882738
 30
0.0
 11
9.988171
 21
6.0804882738
 31
0.0
  0
LINE
  5
54
100
AcDbEntity
  8
3
  6
CONTINUOUS
 62
         5
100
AcDbLine
 10
9.144421
 20
6.0184882738
 30
0.0
 11
9.926171
 21
6.0184882738
 31
0.0
  0
LINE
  5
55
100
AcDbEntity
  8
3
  6
CONTINUOUS
 62
         5
100
AcDbLine
 10
9.144421
 20
6.7684882738
 30
0.0
 11
9.926171
 21
6.7684882738
 31
0.0
  0
LINE
  5
56
100
AcDbEntity
  8
3
  6
CONTINUOUS
 62
         5
100
AcDbLine
 10
10.144421
 20
5.8624882738
 30
0.0
 11
10.144421
 21
5.7372382738
 31
0.0
  0
ARC
  5
57
100
AcDbEntity
  8
3
  6
CONTINUOUS
 62
         5
100
AcDbCircle
 10
11.082421
 20
5.9244882738
 30
0.0
 40
0.062
100
AcDbArc
 50
270.0
 51
360.0
  0
ARC
  5
58
100
AcDbEntity
  8
3
  6
CONTINUOUS
 62
         5
100
AcDbCircle
 10
11.082421
 20
6.8624882738
 30
0.0
 40
0.062
100
AcDbArc
 50
360.0
 51
450.0
  0
ARC
  5
59
100
AcDbEntity
  8
3
  6
CONTINUOUS
 62
         5
100
AcDbCircle
 10
9.206421
 20
5.7992382738
 30
0.0
 40
0.062
100
AcDbArc
 50
180.0
 51
270.0
  0
ARC
  5
5A
100
AcDbEntity
  8
3
  6
CONTINUOUS
 62
         5
100
AcDbCircle
 10
9.206421
 20
6.9877382738
 30
0.0
 40
0.062
100
AcDbArc
 50
90.0
 51
180.0
  0
LINE
  5
5B
100
AcDbEntity
  8
3
  6
CONTINUOUS
 62
         5
100
AcDbLine
 10
9.144421
 20
6.0184882738
 30
0.0
 11
9.144421
 21
5.7992382738
 31
0.0
  0
LINE
  5
5C
100
AcDbEntity
  8
3
  6
CONTINUOUS
 62
         5
100
AcDbLine
 10
10.144421
 20
5.8624882738
 30
0.0
 11
10.393921
 21
6.3934882738
 31
0.0
  0
LINE
  5
5D
100
AcDbEntity
  8
3
  6
CONTINUOUS
 62
         5
100
AcDbLine
 10
10.393921
 20
6.3934882738
 30
0.0
 11
10.144421
 21
6.9244882738
 31
0.0
  0
ARC
  5
5E
100
AcDbEntity
  8
3
  6
CONTINUOUS
 62
         5
100
AcDbCircle
 10
10.0003257568
 20
3.3666444163
 30
0.0
 40
2.5
100
AcDbArc
 50
86.6957490258
 51
108.5155430034
  0
ARC
  5
5F
100
AcDbEntity
  8
3
  6
CONTINUOUS
 62
         5
100
AcDbCircle
 10
10.0003257568
 20
9.4203321312
 30
0.0
 40
2.5
100
AcDbArc
 50
251.4844569966
 51
273.3042509742
  0
ARC
  5
60
100
AcDbEntity
  8
3
  6
CONTINUOUS
 62
         5
100
AcDbCircle
 10
9.926171
 20
6.0804882738
 30
0.0
 40
0.062
100
AcDbArc
 50
270.0
 51
360.0
  0
ARC
  5
61
100
AcDbEntity
  8
3
  6
CONTINUOUS
 62
         5
100
AcDbCircle
 10
9.926171
 20
6.7064882738
 30
0.0
 40
0.062
100
AcDbArc
 50
0.0
 51
90.0
  0
LINE
  5
62
100
AcDbEntity
  8
3
  6
CONTINUOUS
 62
         5
100
AcDbLine
 10
9.988171
 20
6.7064882738
 30
0.0
 11
10.018171
 21
6.3934882738
 31
0.0
  0
LINE
  5
63
100
AcDbEntity
  8
3
  6
CONTINUOUS
 62
         5
100
AcDbLine
 10
9.988171
 20
6.0804882738
 30
0.0
 11
9.988171
 21
5.8666148685
 31
0.0
  0
LINE
  5
64
100
AcDbEntity
  8
3
  6
CONTINUOUS
 62
         5
100
AcDbLine
 10
9.988171
 20
6.920361679
 30
0.0
 11
9.988171
 21
6.7064882738
 31
0.0
  0
LINE
  5
65
100
AcDbEntity
  8
3
  6
CONTINUOUS
 62
         4
100
AcDbLine
 10
9.925671
 20
6.7369882738
 30
0.0
 11
9.955671
 21
6.3934882738
 31
0.0
  0
ARC
  5
66
100
AcDbEntity
  8
3
  6
CONTINUOUS
 62
         4
100
AcDbCircle
 10
8.8123422921
 20
6.3934882738
 30
0.0
 40
0.5
100
AcDbArc
 50
316.6069004804
 51
403.3930995196
  0
LINE
  5
67
100
AcDbEntity
  8
3
  6
CONTINUOUS
 62
         4
100
AcDbLine
 10
9.175671
 20
6.7369882738
 30
0.0
 11
5.5769945695
 21
6.6109742623
 31
0.0
  0
LINE
  5
68
100
AcDbEntity
  8
3
  6
CONTINUOUS
 62
         4
100
AcDbLine
 10
5.5769945695
 20
6.1760022852
 30
0.0
 11
9.175671
 21
6.0499882738
 31
0.0
  0
LINE
  5
69
100
AcDbEntity
  8
3
  6
CONTINUOUS
 62
         4
100
AcDbLine
 10
9.175671
 20
6.7369882738
 30
0.0
 11
9.925671
 21
6.7369882738
 31
0.0
  0
LINE
  5
6A
100
AcDbEntity
  8
3
  6
CONTINUOUS
 62
         4
100
AcDbLine
 10
9.175671
 20
6.0499882738
 30
0.0
 11
9.925671
 21
6.0499882738
 31
0.0
  0
LINE
  5
6B
100
AcDbEntity
  8
3
  6
CONTINUOUS
 62
         5
100
AcDbLine
 10
9.365171
 20
6.7684882738
 30
0.0
 11
9.365171
 21
6.7369882738
 31
0.0
  0
LINE
  5
6C
100
AcDbEntity
  8
3
  6
CONTINUOUS
 62
         5
100
AcDbLine
 10
9.736171
 20
6.7684882738
 30
0.0
 11
9.736171
 21
6.7369882738
 31
0.0
  0
LINE
  5
6D
100
AcDbEntity
  8
3
  6
CONTINUOUS
 62
         4
100
AcDbLine
 10
9.955671
 20
6.3934882738
 30
0.0
 11
9.925671
 21
6.0499882738
 31
0.0
  0
ARC
  5
6E
100
AcDbEntity
  8
3
  6
CONTINUOUS
 62
         4
100
AcDbCircle
 10
5.5711663488
 20
6.8609063167
 30
0.0
 40
0.25
100
AcDbArc
 50
259.3110677018
 51
271.3358508172
  0
ARC
  5
6F
100
AcDbEntity
  8
3
  6
CONTINUOUS
 62
         4
100
AcDbCircle
 10
5.5711663488
 20
5.9260702308
 30
0.0
 40
0.25
100
AcDbArc
 50
88.6641491828
 51
100.6889322982
  0
LINE
  5
70
100
AcDbEntity
  8
3
  6
CONTINUOUS
 62
         4
100
AcDbLine
 10
5.5247971481
 20
6.615244156
 30
0.0
 11
4.050671
 21
6.8934882738
 31
0.0
  0
LINE
  5
71
100
AcDbEntity
  8
3
  6
CONTINUOUS
 62
         4
100
AcDbLine
 10
5.5247971481
 20
6.1717323915
 30
0.0
 11
4.050671
 21
5.8934882738
 31
0.0
  0
ARC
  5
72
100
AcDbEntity
  8
3
  6
CONTINUOUS
 62
         4
100
AcDbCircle
 10
4.050671
 20
6.3934882738
 30
0.0
 40
0.5
100
AcDbArc
 50
90.0
 51
270.0
  0
LINE
  5
73
100
AcDbEntity
  8
3
  6
CONTINUOUS
 62
         5
100
AcDbLine
 10
9.736171
 20
6.0499882738
 30
0.0
 11
9.736171
 21
6.0184882738
 31
0.0
  0
LINE
  5
74
100
AcDbEntity
  8
3
  6
CONTINUOUS
 62
         5
100
AcDbLine
 10
9.365171
 20
6.0499882738
 30
0.0
 11
9.365171
 21
6.0184882738
 31
0.0
  0
LINE
  5
75
100
AcDbEntity
  8
3
  6
CONTINUOUS
 62
         5
100
AcDbLine
 10
11.143922
 20
18.5948888239
 30
0.0
 11
11.143922
 21
19.5328888239
 31
0.0
  0
LINE
  5
76
100
AcDbEntity
  8
3
  6
CONTINUOUS
 62
         5
100
AcDbLine
 10
10.393422
 20
18.5328888239
 30
0.0
 11
10.393422
 21
19.5948888239
 31
0.0
  0
LINE
  5
77
100
AcDbEntity
  8
3
  6
CONTINUOUS
 62
         5
100
AcDbLine
 10
10.143922
 20
18.5328888239
 30
0.0
 11
10.143922
 21
19.5948888239
 31
0.0
  0
LINE
  5
78
100
AcDbEntity
  8
3
  6
CONTINUOUS
 62
         5
100
AcDbLine
 10
10.143922
 20
19.5948888239
 30
0.0
 11
11.081922
 21
19.5948888239
 31
0.0
  0
LINE
  5
79
100
AcDbEntity
  8
3
  6
CONTINUOUS
 62
         5
100
AcDbLine
 10
10.143922
 20
18.5328888239
 30
0.0
 11
11.081922
 21
18.5328888239
 31
0.0
  0
LINE
  5
7A
100
AcDbEntity
  8
3
  6
CONTINUOUS
 62
         5
100
AcDbLine
 10
9.4715682085
 20
19.4622070936
 30
0.0
 11
10.143922
 21
19.5948888239
 31
0.0
  0
LINE
  5
7B
100
AcDbEntity
  8
3
  6
CONTINUOUS
 62
         5
100
AcDbLine
 10
9.4715682085
 20
18.6655705542
 30
0.0
 11
10.143922
 21
18.5328888239
 31
0.0
  0
ARC
  5
7C
100
AcDbEntity
  8
3
  6
CONTINUOUS
 62
         5
100
AcDbCircle
 10
9.550172
 20
19.0638888239
 30
0.0
 40
0.406
100
AcDbArc
 50
101.1632663196
 51
258.8367336804
  0
CIRCLE
  5
7D
100
AcDbEntity
  8
3
  6
CONTINUOUS
 62
         5
100
AcDbCircle
 10
9.550172
 20
19.0638888239
 30
0.0
 40
0.189
  0
ARC
  5
7E
100
AcDbEntity
  8
3
  6
CONTINUOUS
 62
         5
100
AcDbCircle
 10
11.081922
 20
19.5328888239
 30
0.0
 40
0.062
100
AcDbArc
 50
0.0
 51
90.0
  0
ARC
  5
7F
100
AcDbEntity
  8
3
  6
CONTINUOUS
 62
         5
100
AcDbCircle
 10
11.081922
 20
18.5948888239
 30
0.0
 40
0.062
100
AcDbArc
 50
270.0
 51
360.0
  0
TEXT
  5
80
100
AcDbEntity
  8
3
  6
CONTINUOUS
 62
         5
100
AcDbText
 10
9.8761880392
 20
19.3990534234
 30
0.0
 40
0.187
  1
KURT
 50
270.0
 41
0.9
100
AcDbText
  0
TEXT
  5
81
100
AcDbEntity
  8
3
  6
CONTINUOUS
 62
         5
100
AcDbText
 10
10.8026597259
 20
19.2780111302
 30
0.0
 40
0.16
  1
D40
 50
270.0
 41
0.9
100
AcDbText
  0
TEXT
  5
82
100
AcDbEntity
  8
3
  6
CONTINUOUS
 62
         5
100
AcDbText
 10
10.5466597259
 20
19.2780111302
 30
0.0
 40
0.16
  1
24A
 50
270.0
 41
0.9
100
AcDbText
  0
ARC
  5
83
100
AcDbEntity
  8
3
  6
CONTINUOUS
 62
         4
100
AcDbCircle
 10
9.550172
 20
13.5638888239
 30
0.0
 40
0.5
100
AcDbArc
 50
180.0
 51
360.0
  0
LINE
  5
84
100
AcDbEntity
  8
3
  6
CONTINUOUS
 62
         4
100
AcDbLine
 10
9.7719278822
 20
15.038014972
 30
0.0
 11
10.050172
 21
13.5638888239
 31
0.0
  0
LINE
  5
85
100
AcDbEntity
  8
3
  6
CONTINUOUS
 62
         4
100
AcDbLine
 10
9.3284161178
 20
15.038014972
 30
0.0
 11
9.050172
 21
13.5638888239
 31
0.0
  0
ARC
  5
86
100
AcDbEntity
  8
3
  6
CONTINUOUS
 62
         4
100
AcDbCircle
 10
10.017590043
 20
15.0843841727
 30
0.0
 40
0.25
100
AcDbArc
 50
178.6641491828
 51
190.6889322982
  0
ARC
  5
87
100
AcDbEntity
  8
3
  6
CONTINUOUS
 62
         4
100
AcDbCircle
 10
9.082753957
 20
15.0843841727
 30
0.0
 40
0.25
100
AcDbArc
 50
349.3110677018
 51
361.3358508172
  0
LINE
  5
88
100
AcDbEntity
  8
3
  6
CONTINUOUS
 62
         4
100
AcDbLine
 10
9.7676579885
 20
15.0902123934
 30
0.0
 11
9.9059847372
 21
18.5798431627
 31
0.0
  0
LINE
  5
89
100
AcDbEntity
  8
3
  6
CONTINUOUS
 62
         4
100
AcDbLine
 10
9.3326860115
 20
15.0902123934
 30
0.0
 11
9.1819513202
 21
18.8928638814
 31
0.0
  0
LINE
  5
8A
100
AcDbEntity
  8
3
  6
CONTINUOUS
 62
        15
100
AcDbLine
 10
21.206452505
 20
12.634084514
 30
0.0
 11
14.081951
 21
12.634084514
 31
0.0
  0
LINE
  5
8B
100
AcDbEntity
  8
3
  6
CONTINUOUS
 62
        15
100
AcDbLine
 10
29.581951
 20
12.634084514
 30
0.0
 11
22.456451495
 21
12.634084514
 31
0.0
  0
LINE
  5
8C
100
AcDbEntity
  8
3
  6
DASHED
 62
        15
100
AcDbLine
 10
22.127952
 20
13.0040862613
 30
0.0
 11
21.534952
 21
13.0040862613
 31
0.0
  0
LINE
  5
8D
100
AcDbEntity
  8
3
  6
DASHED
 62
        15
100
AcDbLine
 10
22.127952
 20
13.0040862613
 30
0.0
 11
22.127952
 21
13.4040862613
 31
0.0
  0
LINE
  5
8E
100
AcDbEntity
  8
3
  6
DASHED
 62
        15
100
AcDbLine
 10
21.534952
 20
13.0040862613
 30
0.0
 11
21.534952
 21
13.4040862613
 31
0.0
  0
LINE
  5
8F
100
AcDbEntity
  8
3
  6
DASHED
 62
        15
100
AcDbLine
 10
22.034452
 20
11.1230862613
 30
0.0
 11
22.034452
 21
13.0040862613
 31
0.0
  0
LINE
  5
90
100
AcDbEntity
  8
3
  6
DASHED
 62
        15
100
AcDbLine
 10
21.628452
 20
11.1230862613
 30
0.0
 11
21.628452
 21
13.0040862613
 31
0.0
  0
LINE
  5
91
100
AcDbEntity
  8
3
  6
CONTINUOUS
 62
        15
100
AcDbLine
 10
22.081702
 20
11.0290862613
 30
0.0
 11
22.081702
 21
11.1230862613
 31
0.0
  0
LINE
  5
92
100
AcDbEntity
  8
3
  6
CONTINUOUS
 62
        15
100
AcDbLine
 10
21.581202
 20
11.0290862613
 30
0.0
 11
21.581202
 21
11.1230862613
 31
0.0
  0
LINE
  5
93
100
AcDbEntity
  8
3
  6
CONTINUOUS
 62
        15
100
AcDbLine
 10
21.581202
 20
11.1230862613
 30
0.0
 11
22.081702
 21
11.1230862613
 31
0.0
  0
CIRCLE
  5
94
100
AcDbEntity
  8
3
  6
CONTINUOUS
 62
        15
100
AcDbCircle
 10
21.080952
 20
13.0290862613
 30
0.0
 40
0.17
  0
CIRCLE
  5
95
100
AcDbEntity
  8
3
  6
CONTINUOUS
 62
        15
100
AcDbCircle
 10
21.080952
 20
13.0290862613
 30
0.0
 40
0.1305
  0
CIRCLE
  5
96
100
AcDbEntity
  8
3
  6
DASHED
 62
        15
100
AcDbCircle
 10
21.080952
 20
13.0290862613
 30
0.0
 40
0.15625
  0
CIRCLE
  5
97
100
AcDbEntity
  8
3
  6
CONTINUOUS
 62
        15
100
AcDbCircle
 10
22.581952
 20
13.0290862613
 30
0.0
 40
0.17
  0
CIRCLE
  5
98
100
AcDbEntity
  8
3
  6
CONTINUOUS
 62
        15
100
AcDbCircle
 10
22.581952
 20
13.0290862613
 30
0.0
 40
0.1305
  0
CIRCLE
  5
99
100
AcDbEntity
  8
3
  6
DASHED
 62
        15
100
AcDbCircle
 10
22.581952
 20
13.0290862613
 30
0.0
 40
0.15625
  0
LINE
  5
9A
100
AcDbEntity
  8
3
  6
CONTINUOUS
 62
        15
100
AcDbLine
 10
14.081951
 20
11.0290862613
 30
0.0
 11
14.081951
 21
13.4040862613
 31
0.0
  0
LINE
  5
9B
100
AcDbEntity
  8
3
  6
CONTINUOUS
 62
        15
100
AcDbLine
 10
29.581951
 20
11.9031946087
 30
0.0
 11
29.581951
 21
11.2785862613
 31
0.0
  0
LINE
  5
9C
100
AcDbEntity
  8
3
  6
CENTER
 62
        15
100
AcDbLine
 10
21.080952
 20
12.7442050154
 30
0.0
 11
21.080952
 21
13.2845724772
 31
0.0
  0
LINE
  5
9D
100
AcDbEntity
  8
3
  6
CENTER
 62
        15
100
AcDbLine
 10
20.7662510012
 20
13.0290862613
 30
0.0
 11
21.382370911
 21
13.0290862613
 31
0.0
  0
LINE
  5
9E
100
AcDbEntity
  8
3
  6
DASHED
 62
        15
100
AcDbLine
 10
16.9388391501
 20
11.5450862613
 30
0.0
 11
16.7240648499
 21
11.5450862613
 31
0.0
  0
LINE
  5
9F
100
AcDbEntity
  8
3
  6
DASHED
 62
        15
100
AcDbLine
 10
16.7240648499
 20
11.5450862613
 30
0.0
 11
16.548952
 21
11.5450862613
 31
0.0
  0
LINE
  5
A0
100
AcDbEntity
  8
3
  6
CONTINUOUS
 62
        15
100
AcDbLine
 10
16.488952
 20
11.0290862613
 30
0.0
 11
17.173952
 21
11.0290862613
 31
0.0
  0
LINE
  5
A1
100
AcDbEntity
  8
3
  6
CONTINUOUS
 62
        15
100
AcDbLine
 10
14.081951
 20
11.0290862613
 30
0.0
 11
15.6737511661
 21
11.0290862613
 31
0.0
  0
LINE
  5
A2
100
AcDbEntity
  8
3
  6
CONTINUOUS
 62
        15
100
AcDbLine
 10
15.6737511661
 20
11.0290862613
 30
0.0
 11
16.488952
 21
11.0290862613
 31
0.0
  0
LINE
  5
A3
100
AcDbEntity
  8
3
  6
CONTINUOUS
 62
        15
100
AcDbLine
 10
17.173952
 20
11.0290862613
 30
0.0
 11
17.3262935614
 21
11.0290862613
 31
0.0
  0
LINE
  5
A4
100
AcDbEntity
  8
3
  6
CONTINUOUS
 62
        15
100
AcDbLine
 10
21.206452505
 20
11.5140858977
 30
0.0
 11
14.081951
 21
11.5140858977
 31
0.0
  0
LINE
  5
A5
100
AcDbEntity
  8
3
  6
CONTINUOUS
 62
        15
100
AcDbLine
 10
29.5219511869
 20
11.5740857108
 30
0.0
 11
29.5219511869
 21
12.5740847008
 31
0.0
  0
LINE
  5
A6
100
AcDbEntity
  8
3
  6
CONTINUOUS
 62
        15
100
AcDbLine
 10
29.5219511869
 20
11.5740857108
 30
0.0
 11
29.5819511869
 21
11.5140857108
 31
0.0
  0
LINE
  5
A7
100
AcDbEntity
  8
3
  6
CENTER
 62
        15
100
AcDbLine
 10
25.768452
 20
10.877221283
 30
0.0
 11
25.768452
 21
11.748192002
 31
0.0
  0
LINE
  5
A8
100
AcDbEntity
  8
3
  6
DASHED
 62
        15
100
AcDbLine
 10
25.423452
 20
11.0290862613
 30
0.0
 11
25.453452
 21
11.0590862613
 31
0.0
  0
LINE
  5
A9
100
AcDbEntity
  8
3
  6
DASHED
 62
        15
100
AcDbLine
 10
25.453452
 20
11.0590862613
 30
0.0
 11
26.083452
 21
11.0590862613
 31
0.0
  0
LINE
  5
AA
100
AcDbEntity
  8
3
  6
DASHED
 62
        15
100
AcDbLine
 10
25.453452
 20
11.0590862613
 30
0.0
 11
25.453452
 21
11.5150862613
 31
0.0
  0
LINE
  5
AB
100
AcDbEntity
  8
3
  6
DASHED
 62
        15
100
AcDbLine
 10
25.483452
 20
11.5450862613
 30
0.0
 11
25.453452
 21
11.5150862613
 31
0.0
  0
LINE
  5
AC
100
AcDbEntity
  8
3
  6
DASHED
 62
        15
100
AcDbLine
 10
25.768452
 20
11.6070862613
 30
0.0
 11
25.6610648499
 21
11.5450862613
 31
0.0
  0
LINE
  5
AD
100
AcDbEntity
  8
3
  6
DASHED
 62
        15
100
AcDbLine
 10
25.768452
 20
11.6070862613
 30
0.0
 11
25.8758391501
 21
11.5450862613
 31
0.0
  0
LINE
  5
AE
100
AcDbEntity
  8
3
  6
DASHED
 62
        15
100
AcDbLine
 10
25.483452
 20
11.5450862613
 30
0.0
 11
26.053452
 21
11.5450862613
 31
0.0
  0
LINE
  5
AF
100
AcDbEntity
  8
3
  6
DASHED
 62
        15
100
AcDbLine
 10
26.083452
 20
11.5150862613
 30
0.0
 11
26.053452
 21
11.5450862613
 31
0.0
  0
LINE
  5
B0
100
AcDbEntity
  8
3
  6
DASHED
 62
        15
100
AcDbLine
 10
26.083452
 20
11.0590862613
 30
0.0
 11
26.083452
 21
11.5150862613
 31
0.0
  0
LINE
  5
B1
100
AcDbEntity
  8
3
  6
DASHED
 62
        15
100
AcDbLine
 10
26.113452
 20
11.0290862613
 30
0.0
 11
26.083452
 21
11.0590862613
 31
0.0
  0
LINE
  5
B2
100
AcDbEntity
  8
3
  6
DASHED
 62
        15
100
AcDbLine
 10
18.179452
 20
11.5450862613
 30
0.0
 11
18.209452
 21
11.5150862613
 31
0.0
  0
LINE
  5
B3
100
AcDbEntity
  8
3
  6
DASHED
 62
        15
100
AcDbLine
 10
17.894452
 20
11.6070862613
 30
0.0
 11
18.0018391501
 21
11.5450862613
 31
0.0
  0
LINE
  5
B4
100
AcDbEntity
  8
3
  6
DASHED
 62
        15
100
AcDbLine
 10
17.894452
 20
11.6070862613
 30
0.0
 11
17.7870648499
 21
11.5450862613
 31
0.0
  0
LINE
  5
B5
100
AcDbEntity
  8
3
  6
DASHED
 62
        15
100
AcDbLine
 10
17.579452
 20
11.5150862613
 30
0.0
 11
18.209452
 21
11.5150862613
 31
0.0
  0
LINE
  5
B6
100
AcDbEntity
  8
3
  6
DASHED
 62
        15
100
AcDbLine
 10
18.179452
 20
11.5450862613
 30
0.0
 11
17.609452
 21
11.5450862613
 31
0.0
  0
LINE
  5
B7
100
AcDbEntity
  8
3
  6
DASHED
 62
        15
100
AcDbLine
 10
17.579452
 20
11.5150862613
 30
0.0
 11
17.609452
 21
11.5450862613
 31
0.0
  0
LINE
  5
B8
100
AcDbEntity
  8
3
  6
DASHED
 62
        15
100
AcDbLine
 10
18.239452
 20
11.0290862613
 30
0.0
 11
18.209452
 21
11.0590862613
 31
0.0
  0
LINE
  5
B9
100
AcDbEntity
  8
3
  6
DASHED
 62
        15
100
AcDbLine
 10
18.209452
 20
11.0590862613
 30
0.0
 11
18.209452
 21
11.5150862613
 31
0.0
  0
LINE
  5
BA
100
AcDbEntity
  8
3
  6
DASHED
 62
        15
100
AcDbLine
 10
17.549452
 20
11.0290862613
 30
0.0
 11
17.579452
 21
11.0590862613
 31
0.0
  0
LINE
  5
BB
100
AcDbEntity
  8
3
  6
DASHED
 62
        15
100
AcDbLine
 10
17.579452
 20
11.0590862613
 30
0.0
 11
17.579452
 21
11.5150862613
 31
0.0
  0
LINE
  5
BC
100
AcDbEntity
  8
3
  6
DASHED
 62
        15
100
AcDbLine
 10
18.209452
 20
11.0590862613
 30
0.0
 11
17.579452
 21
11.0590862613
 31
0.0
  0
LINE
  5
BD
100
AcDbEntity
  8
3
  6
CENTER
 62
        15
100
AcDbLine
 10
17.894452
 20
10.8753645625
 30
0.0
 11
17.894452
 21
11.7372204716
 31
0.0
  0
LINE
  5
BE
100
AcDbEntity
  8
3
  6
DASHED
 62
        15
100
AcDbLine
 10
16.831452
 20
11.6070862613
 30
0.0
 11
16.9388391501
 21
11.5450862613
 31
0.0
  0
LINE
  5
BF
100
AcDbEntity
  8
3
  6
DASHED
 62
        15
100
AcDbLine
 10
16.831452
 20
11.6070862613
 30
0.0
 11
16.7240648499
 21
11.5450862613
 31
0.0
  0
LINE
  5
C0
100
AcDbEntity
  8
3
  6
DASHED
 62
        15
100
AcDbLine
 10
16.518952
 20
11.5150862613
 30
0.0
 11
16.548952
 21
11.5450862613
 31
0.0
  0
LINE
  5
C1
100
AcDbEntity
  8
3
  6
DASHED
 62
        15
100
AcDbLine
 10
16.518952
 20
11.0590862613
 30
0.0
 11
16.518952
 21
11.5150862613
 31
0.0
  0
LINE
  5
C2
100
AcDbEntity
  8
3
  6
DASHED
 62
        15
100
AcDbLine
 10
17.113952
 20
11.5450862613
 30
0.0
 11
16.9388391501
 21
11.5450862613
 31
0.0
  0
LINE
  5
C3
100
AcDbEntity
  8
3
  6
DASHED
 62
        15
100
AcDbLine
 10
17.113952
 20
11.5450862613
 30
0.0
 11
17.143952
 21
11.5150862613
 31
0.0
  0
LINE
  5
C4
100
AcDbEntity
  8
3
  6
DASHED
 62
        15
100
AcDbLine
 10
16.518952
 20
11.5150862613
 30
0.0
 11
17.143952
 21
11.5150862613
 31
0.0
  0
LINE
  5
C5
100
AcDbEntity
  8
3
  6
DASHED
 62
        15
100
AcDbLine
 10
17.143952
 20
11.0590862613
 30
0.0
 11
17.143952
 21
11.5150862613
 31
0.0
  0
LINE
  5
C6
100
AcDbEntity
  8
3
  6
DASHED
 62
        15
100
AcDbLine
 10
17.173952
 20
11.0290862613
 30
0.0
 11
17.143952
 21
11.0590862613
 31
0.0
  0
LINE
  5
C7
100
AcDbEntity
  8
3
  6
DASHED
 62
        15
100
AcDbLine
 10
17.143952
 20
11.0590862613
 30
0.0
 11
16.518952
 21
11.0590862613
 31
0.0
  0
LINE
  5
C8
100
AcDbEntity
  8
3
  6
DASHED
 62
        15
100
AcDbLine
 10
16.488952
 20
11.0290862613
 30
0.0
 11
16.518952
 21
11.0590862613
 31
0.0
  0
LINE
  5
C9
100
AcDbEntity
  8
3
  6
CENTER
 62
        15
100
AcDbLine
 10
16.831452
 20
10.9034685596
 30
0.0
 11
16.831452
 21
11.7559564697
 31
0.0
  0
LINE
  5
CA
100
AcDbEntity
  8
3
  6
CONTINUOUS
 62
        15
100
AcDbLine
 10
22.360735513
 20
11.0290862613
 30
0.0
 11
28.1554124257
 21
11.0290862613
 31
0.0
  0
LINE
  5
CB
100
AcDbEntity
  8
3
  6
CONTINUOUS
 62
        15
100
AcDbLine
 10
29.581951
 20
11.9031946087
 30
0.0
 11
29.581951
 21
13.4040862613
 31
0.0
  0
LINE
  5
CC
100
AcDbEntity
  8
3
  6
CONTINUOUS
 62
        15
100
AcDbLine
 10
17.3262935614
 20
11.0290862613
 30
0.0
 11
21.581202
 21
11.0290862613
 31
0.0
  0
LINE
  5
CD
100
AcDbEntity
  8
3
  6
CONTINUOUS
 62
        15
100
AcDbLine
 10
28.1554124257
 20
11.0290862613
 30
0.0
 11
29.581951
 21
11.0290862613
 31
0.0
  0
LINE
  5
CE
100
AcDbEntity
  8
3
  6
DASHED
 62
        15
100
AcDbLine
 10
16.831452
 20
11.4740862613
 30
0.0
 11
16.831452
 21
11.5740862613
 31
0.0
  0
LINE
  5
CF
100
AcDbEntity
  8
3
  6
CONTINUOUS
 62
        15
100
AcDbLine
 10
29.581951
 20
12.634084514
 30
0.0
 11
29.5219511869
 21
12.5740847008
 31
0.0
  0
ARC
  5
D0
100
AcDbEntity
  8
3
  6
CONTINUOUS
 62
        15
100
AcDbCircle
 10
22.456451495
 20
11.5740858371
 30
0.0
 40
0.0599999394
100
AcDbArc
 50
180.0
 51
270.0
  0
ARC
  5
D1
100
AcDbEntity
  8
3
  6
CONTINUOUS
 62
        15
100
AcDbCircle
 10
21.206452505
 20
11.5740858371
 30
0.0
 40
0.0599999394
100
AcDbArc
 50
270.0
 51
360.0
  0
LINE
  5
D2
100
AcDbEntity
  8
3
  6
CONTINUOUS
 62
        15
100
AcDbLine
 10
21.2664524444
 20
11.5740858371
 30
0.0
 11
21.2664524444
 21
11.5800857401
 31
0.0
  0
LINE
  5
D3
100
AcDbEntity
  8
3
  6
CONTINUOUS
 62
        15
100
AcDbLine
 10
22.3064515556
 20
11.6700857401
 30
0.0
 11
21.3564524444
 21
11.6700857401
 31
0.0
  0
ARC
  5
D4
100
AcDbEntity
  8
3
  6
CONTINUOUS
 62
        15
100
AcDbCircle
 10
21.3564524444
 20
11.5800857401
 30
0.0
 40
0.09
100
AcDbArc
 50
90.0
 51
180.0
  0
ARC
  5
D5
100
AcDbEntity
  8
3
  6
CONTINUOUS
 62
        15
100
AcDbCircle
 10
22.3064515556
 20
11.5800857401
 30
0.0
 40
0.09
100
AcDbArc
 50
0.0
 51
90.0
  0
LINE
  5
D6
100
AcDbEntity
  8
3
  6
CONTINUOUS
 62
        15
100
AcDbLine
 10
22.3964515556
 20
11.5740858371
 30
0.0
 11
22.3964515556
 21
11.5800857401
 31
0.0
  0
LINE
  5
D7
100
AcDbEntity
  8
3
  6
CONTINUOUS
 62
        15
100
AcDbLine
 10
29.581951
 20
11.5140858977
 30
0.0
 11
22.456451495
 21
11.5140858977
 31
0.0
  0
LINE
  5
D8
100
AcDbEntity
  8
3
  6
CONTINUOUS
 62
        15
100
AcDbLine
 10
29.5219511869
 20
11.5740857108
 30
0.0
 11
22.5164513082
 21
11.5740857108
 31
0.0
  0
ARC
  5
D9
100
AcDbEntity
  8
3
  6
CONTINUOUS
 62
        15
100
AcDbCircle
 10
22.5164513082
 20
11.6340856502
 30
0.0
 40
0.0599999394
100
AcDbArc
 50
177.7075933631
 51
270.0
  0
ARC
  5
DA
100
AcDbEntity
  8
3
  6
CONTINUOUS
 62
        15
100
AcDbCircle
 10
22.366571413
 20
11.6400855533
 30
0.0
 40
0.09
100
AcDbArc
 50
357.7075933631
 51
450.0
  0
LINE
  5
DB
100
AcDbEntity
  8
3
  6
CONTINUOUS
 62
        15
100
AcDbLine
 10
22.366571413
 20
11.7300855533
 30
0.0
 11
21.2964526312
 21
11.7300855533
 31
0.0
  0
ARC
  5
DC
100
AcDbEntity
  8
3
  6
CONTINUOUS
 62
        15
100
AcDbCircle
 10
21.2964526312
 20
11.6400855533
 30
0.0
 40
0.09
100
AcDbArc
 50
90.0
 51
180.0
  0
ARC
  5
DD
100
AcDbEntity
  8
3
  6
CONTINUOUS
 62
        15
100
AcDbCircle
 10
21.1464526918
 20
11.6340856502
 30
0.0
 40
0.0599999394
100
AcDbArc
 50
270.0
 51
360.0
  0
LINE
  5
DE
100
AcDbEntity
  8
3
  6
CONTINUOUS
 62
        15
100
AcDbLine
 10
21.1464526918
 20
11.5740857108
 30
0.0
 11
14.0819510344
 21
11.5740857108
 31
0.0
  0
LINE
  5
DF
100
AcDbEntity
  8
3
  6
CONTINUOUS
 62
        15
100
AcDbLine
 10
21.1464526918
 20
12.5740847008
 30
0.0
 11
14.081951
 21
12.5740847008
 31
0.0
  0
ARC
  5
E0
100
AcDbEntity
  8
3
  6
CONTINUOUS
 62
        15
100
AcDbCircle
 10
21.1464526918
 20
12.5140847614
 30
0.0
 40
0.0599999394
100
AcDbArc
 50
0.0
 51
90.0
  0
ARC
  5
E1
100
AcDbEntity
  8
3
  6
CONTINUOUS
 62
        15
100
AcDbCircle
 10
21.2964526312
 20
12.5080848584
 30
0.0
 40
0.09
100
AcDbArc
 50
180.0
 51
270.0
  0
LINE
  5
E2
100
AcDbEntity
  8
3
  6
CONTINUOUS
 62
        15
100
AcDbLine
 10
22.3664513688
 20
12.4180848584
 30
0.0
 11
21.2964526312
 21
12.4180848584
 31
0.0
  0
ARC
  5
E3
100
AcDbEntity
  8
3
  6
CONTINUOUS
 62
        15
100
AcDbCircle
 10
22.3664513688
 20
12.5080848584
 30
0.0
 40
0.09
100
AcDbArc
 50
270.0
 51
360.0
  0
ARC
  5
E4
100
AcDbEntity
  8
3
  6
CONTINUOUS
 62
        15
100
AcDbCircle
 10
22.5164513082
 20
12.5140847614
 30
0.0
 40
0.0599999394
100
AcDbArc
 50
90.0
 51
180.0
  0
LINE
  5
E5
100
AcDbEntity
  8
3
  6
CONTINUOUS
 62
        15
100
AcDbLine
 10
29.5219511869
 20
12.5740847008
 30
0.0
 11
22.5164513082
 21
12.5740847008
 31
0.0
  0
ARC
  5
E6
100
AcDbEntity
  8
3
  6
CONTINUOUS
 62
        15
100
AcDbCircle
 10
22.456451495
 20
12.5740845746
 30
0.0
 40
0.0599999394
100
AcDbArc
 50
90.0
 51
180.0
  0
LINE
  5
E7
100
AcDbEntity
  8
3
  6
CONTINUOUS
 62
        15
100
AcDbLine
 10
22.3964515556
 20
12.5680846715
 30
0.0
 11
22.3964515556
 21
12.5740845746
 31
0.0
  0
ARC
  5
E8
100
AcDbEntity
  8
3
  6
CONTINUOUS
 62
        15
100
AcDbCircle
 10
22.3064515556
 20
12.5680846715
 30
0.0
 40
0.09
100
AcDbArc
 50
270.0
 51
360.0
  0
LINE
  5
E9
100
AcDbEntity
  8
3
  6
CONTINUOUS
 62
        15
100
AcDbLine
 10
22.3064515556
 20
12.4780846715
 30
0.0
 11
21.3564524444
 21
12.4780846715
 31
0.0
  0
ARC
  5
EA
100
AcDbEntity
  8
3
  6
CONTINUOUS
 62
        15
100
AcDbCircle
 10
21.3564524444
 20
12.5680846715
 30
0.0
 40
0.09
100
AcDbArc
 50
180.0
 51
270.0
  0
LINE
  5
EB
100
AcDbEntity
  8
3
  6
CONTINUOUS
 62
        15
100
AcDbLine
 10
21.2664524444
 20
12.5680846715
 30
0.0
 11
21.2664524444
 21
12.5740845746
 31
0.0
  0
ARC
  5
EC
100
AcDbEntity
  8
3
  6
CONTINUOUS
 62
        15
100
AcDbCircle
 10
21.206452505
 20
12.5740845746
 30
0.0
 40
0.0599999394
100
AcDbArc
 50
0.0
 51
90.0
  0
LINE
  5
ED
100
AcDbEntity
  8
3
  6
DASHED
 62
        15
100
AcDbLine
 10
26.831452
 20
11.6070862613
 30
0.0
 11
26.9388391501
 21
11.5450862613
 31
0.0
  0
LINE
  5
EE
100
AcDbEntity
  8
3
  6
DASHED
 62
        15
100
AcDbLine
 10
26.831452
 20
11.6070862613
 30
0.0
 11
26.7240648499
 21
11.5450862613
 31
0.0
  0
LINE
  5
EF
100
AcDbEntity
  8
3
  6
CONTINUOUS
 62
        15
100
AcDbLine
 10
26.518952
 20
11.5150862613
 30
0.0
 11
26.548952
 21
11.5450862613
 31
0.0
  0
LINE
  5
F0
100
AcDbEntity
  8
3
  6
DASHED
 62
        15
100
AcDbLine
 10
26.518952
 20
11.0590862613
 30
0.0
 11
26.518952
 21
11.5150862613
 31
0.0
  0
LINE
  5
F1
100
AcDbEntity
  8
3
  6
DASHED
 62
        15
100
AcDbLine
 10
27.113952
 20
11.5450862613
 30
0.0
 11
26.548952
 21
11.5450862613
 31
0.0
  0
LINE
  5
F2
100
AcDbEntity
  8
3
  6
CONTINUOUS
 62
        15
100
AcDbLine
 10
27.113952
 20
11.5450862613
 30
0.0
 11
27.143952
 21
11.5150862613
 31
0.0
  0
LINE
  5
F3
100
AcDbEntity
  8
3
  6
DASHED
 62
        15
100
AcDbLine
 10
26.518952
 20
11.5150862613
 30
0.0
 11
27.143952
 21
11.5150862613
 31
0.0
  0
LINE
  5
F4
100
AcDbEntity
  8
3
  6
DASHED
 62
        15
100
AcDbLine
 10
27.143952
 20
11.0590862613
 30
0.0
 11
27.143952
 21
11.5150862613
 31
0.0
  0
LINE
  5
F5
100
AcDbEntity
  8
3
  6
DASHED
 62
        15
100
AcDbLine
 10
27.173952
 20
11.0290862613
 30
0.0
 11
27.143952
 21
11.0590862613
 31
0.0
  0
LINE
  5
F6
100
AcDbEntity
  8
3
  6
DASHED
 62
        15
100
AcDbLine
 10
27.143952
 20
11.0590862613
 30
0.0
 11
26.518952
 21
11.0590862613
 31
0.0
  0
LINE
  5
F7
100
AcDbEntity
  8
3
  6
DASHED
 62
        15
100
AcDbLine
 10
26.488952
 20
11.0290862613
 30
0.0
 11
26.518952
 21
11.0590862613
 31
0.0
  0
LINE
  5
F8
100
AcDbEntity
  8
3
  6
CONTINUOUS
 62
        15
100
AcDbLine
 10
14.0819510344
 20
11.6670056261
 30
0.0
 11
14.0819510344
 21
11.6536672115
 31
0.0
  0
LINE
  5
F9
100
AcDbEntity
  8
3
  6
CENTER
 62
        15
100
AcDbLine
 10
26.831452
 20
10.910979838
 30
0.0
 11
26.831452
 21
11.694178314
 31
0.0
  0
LINE
  5
FA
100
AcDbEntity
  8
3
  6
CONTINUOUS
 62
        15
100
AcDbLine
 10
18.893952
 20
12.1940862613
 30
0.0
 11
20.518952
 21
12.1940862613
 31
0.0
  0
LINE
  5
FB
100
AcDbEntity
  8
3
  6
CONTINUOUS
 62
        15
100
AcDbLine
 10
23.143952
 20
12.1940862613
 30
0.0
 11
24.768952
 21
12.1940862613
 31
0.0
  0
LINE
  5
FC
100
AcDbEntity
  8
3
  6
CONTINUOUS
 62
        15
100
AcDbLine
 10
23.143952
 20
11.5740862613
 30
0.0
 11
24.768952
 21
11.5740862613
 31
0.0
  0
LINE
  5
FD
100
AcDbEntity
  8
3
  6
CONTINUOUS
 62
        15
100
AcDbLine
 10
18.893952
 20
11.5740862613
 30
0.0
 11
20.518952
 21
11.5740862613
 31
0.0
  0
LINE
  5
FE
100
AcDbEntity
  8
3
  6
CONTINUOUS
 62
        15
100
AcDbLine
 10
22.081702
 20
11.0290862613
 30
0.0
 11
22.360735513
 21
11.0290862613
 31
0.0
  0
LINE
  5
FF
100
AcDbEntity
  8
3
  6
CONTINUOUS
 62
        15
100
AcDbLine
 10
29.581951
 20
11.0290862613
 30
0.0
 11
29.581951
 21
11.2785862613
 31
0.0
  0
LINE
  5
100
100
AcDbEntity
  8
3
  6
CONTINUOUS
 62
        15
100
AcDbLine
 10
14.081951
 20
13.4040862613
 30
0.0
 11
29.581951
 21
13.4040862613
 31
0.0
  0
LINE
  5
101
100
AcDbEntity
  8
3
  6
CENTER
 62
        15
100
AcDbLine
 10
21.831452
 20
10.6303022018
 30
0.0
 11
21.831452
 21
13.643134064
 31
0.0
  0
LINE
  5
102
100
AcDbEntity
  8
3
  6
CENTER
 62
        15
100
AcDbLine
 10
22.581952
 20
12.7533486572
 30
0.0
 11
22.581952
 21
13.3148734564
 31
0.0
  0
LINE
  5
103
100
AcDbEntity
  8
3
  6
CENTER
 62
        15
100
AcDbLine
 10
22.8671188902
 20
13.0290862613
 30
0.0
 11
22.2560491437
 21
13.0290862613
 31
0.0
  0
LINE
  5
104
100
AcDbEntity
  8
3
  6
CONTINUOUS
 62
        15
100
AcDbLine
 10
20.643952
 20
11.7160862613
 30
0.0
 11
18.768952
 21
11.7160862613
 31
0.0
  0
LINE
  5
105
100
AcDbEntity
  8
3
  6
CONTINUOUS
 62
        15
100
AcDbLine
 10
24.893952
 20
11.7160862613
 30
0.0
 11
23.018952
 21
11.7160862613
 31
0.0
  0
LINE
  5
106
100
AcDbEntity
  8
3
  6
CONTINUOUS
 62
        15
100
AcDbLine
 10
20.643952
 20
11.6990862613
 30
0.0
 11
20.643952
 21
12.0690862613
 31
0.0
  0
LINE
  5
107
100
AcDbEntity
  8
3
  6
CONTINUOUS
 62
        15
100
AcDbLine
 10
23.018952
 20
11.6990862613
 30
0.0
 11
23.018952
 21
12.0690862613
 31
0.0
  0
LINE
  5
108
100
AcDbEntity
  8
3
  6
CONTINUOUS
 62
        15
100
AcDbLine
 10
24.893952
 20
11.6990862613
 30
0.0
 11
24.893952
 21
12.0690862613
 31
0.0
  0
LINE
  5
109
100
AcDbEntity
  8
3
  6
CONTINUOUS
 62
        15
100
AcDbLine
 10
18.768952
 20
11.6990862613
 30
0.0
 11
18.768952
 21
12.0690862613
 31
0.0
  0
ARC
  5
10A
100
AcDbEntity
  8
3
  6
CONTINUOUS
 62
        15
100
AcDbCircle
 10
24.768952
 20
12.0690862613
 30
0.0
 40
0.125
100
AcDbArc
 50
0.0
 51
90.0
  0
ARC
  5
10B
100
AcDbEntity
  8
3
  6
CONTINUOUS
 62
        15
100
AcDbCircle
 10
24.768952
 20
11.6990862613
 30
0.0
 40
0.125
100
AcDbArc
 50
270.0
 51
360.0
  0
ARC
  5
10C
100
AcDbEntity
  8
3
  6
CONTINUOUS
 62
        15
100
AcDbCircle
 10
23.143952
 20
12.0690862613
 30
0.0
 40
0.125
100
AcDbArc
 50
90.0
 51
180.0
  0
ARC
  5
10D
100
AcDbEntity
  8
3
  6
CONTINUOUS
 62
        15
100
AcDbCircle
 10
23.143952
 20
11.6990862613
 30
0.0
 40
0.125
100
AcDbArc
 50
180.0
 51
270.0
  0
ARC
  5
10E
100
AcDbEntity
  8
3
  6
CONTINUOUS
 62
        15
100
AcDbCircle
 10
20.518952
 20
12.0690862613
 30
0.0
 40
0.125
100
AcDbArc
 50
0.0
 51
90.0
  0
ARC
  5
10F
100
AcDbEntity
  8
3
  6
CONTINUOUS
 62
        15
100
AcDbCircle
 10
20.518952
 20
11.6990862613
 30
0.0
 40
0.125
100
AcDbArc
 50
270.0
 51
360.0
  0
ARC
  5
110
100
AcDbEntity
  8
3
  6
CONTINUOUS
 62
        15
100
AcDbCircle
 10
18.893952
 20
12.0690862613
 30
0.0
 40
0.125
100
AcDbArc
 50
90.0
 51
180.0
  0
ARC
  5
111
100
AcDbEntity
  8
3
  6
CONTINUOUS
 62
        15
100
AcDbCircle
 10
18.893952
 20
11.6990862613
 30
0.0
 40
0.125
100
AcDbArc
 50
180.0
 51
270.0
  0
ARC
  5
112
100
AcDbEntity
  8
3
  6
CONTINUOUS
 62
         5
100
AcDbCircle
 10
33.240052
 20
12.5330862613
 30
0.0
 40
0.645
100
AcDbArc
 50
292.708530995
 51
307.291469005
  0
ARC
  5
113
100
AcDbEntity
  8
3
  6
CONTINUOUS
 62
         5
100
AcDbCircle
 10
33.240052
 20
12.5330862613
 30
0.0
 40
0.645
100
AcDbArc
 50
232.708530995
 51
247.291469005
  0
ARC
  5
114
100
AcDbEntity
  8
3
  6
CONTINUOUS
 62
         5
100
AcDbCircle
 10
33.240052
 20
12.5330862613
 30
0.0
 40
0.645
100
AcDbArc
 50
352.708530995
 51
367.291469005
  0
ARC
  5
115
100
AcDbEntity
  8
3
  6
CONTINUOUS
 62
         5
100
AcDbCircle
 10
33.240052
 20
12.5330862613
 30
0.0
 40
0.645
100
AcDbArc
 50
52.708530995
 51
67.291469005
  0
ARC
  5
116
100
AcDbEntity
  8
3
  6
CONTINUOUS
 62
         5
100
AcDbCircle
 10
33.240052
 20
12.5330862613
 30
0.0
 40
0.645
100
AcDbArc
 50
172.708530995
 51
187.291469005
  0
ARC
  5
117
100
AcDbEntity
  8
3
  6
CONTINUOUS
 62
         5
100
AcDbCircle
 10
33.240052
 20
12.5330862613
 30
0.0
 40
0.645
100
AcDbArc
 50
112.708530995
 51
127.291469005
  0
LINE
  5
118
100
AcDbEntity
  8
3
  6
CONTINUOUS
 62
         5
100
AcDbLine
 10
32.6002678888
 20
12.4512248478
 30
0.0
 11
32.8492658807
 21
12.0199476747
 31
0.0
  0
LINE
  5
119
100
AcDbEntity
  8
3
  6
CONTINUOUS
 62
         5
100
AcDbLine
 10
33.6308381193
 20
13.0462248478
 30
0.0
 11
33.8798361112
 21
12.6149476747
 31
0.0
  0
LINE
  5
11A
100
AcDbEntity
  8
3
  6
CONTINUOUS
 62
         5
100
AcDbLine
 10
33.6308381193
 20
12.0199476747
 30
0.0
 11
33.8798361112
 21
12.4512248478
 31
0.0
  0
LINE
  5
11B
100
AcDbEntity
  8
3
  6
CONTINUOUS
 62
         5
100
AcDbLine
 10
32.6002678888
 20
12.6149476747
 30
0.0
 11
32.8492658807
 21
13.0462248478
 31
0.0
  0
LINE
  5
11C
100
AcDbEntity
  8
3
  6
CONTINUOUS
 62
         5
100
AcDbLine
 10
32.991054008
 20
11.9380862613
 30
0.0
 11
33.489049992
 21
11.9380862613
 31
0.0
  0
LINE
  5
11D
100
AcDbEntity
  8
3
  6
CONTINUOUS
 62
         5
100
AcDbLine
 10
32.991054008
 20
13.1280862613
 30
0.0
 11
33.489049992
 21
13.1280862613
 31
0.0
  0
LINE
  5
11E
100
AcDbEntity
  8
3
  6
CENTER
 62
         5
100
AcDbLine
 10
33.828052
 20
12.4128415815
 30
0.0
 11
33.828052
 21
12.6685561886
 31
0.0
  0
LINE
  5
11F
100
AcDbEntity
  8
3
  6
CENTER
 62
         5
100
AcDbLine
 10
32.652052
 20
12.4083553603
 30
0.0
 11
32.652052
 21
12.6595837463
 31
0.0
  0
CIRCLE
  5
120
100
AcDbEntity
  8
3
  6
CONTINUOUS
 62
         5
100
AcDbCircle
 10
33.240052
 20
12.5330862613
 30
0.0
 40
0.445
  0
CIRCLE
  5
121
100
AcDbEntity
  8
3
  6
CONTINUOUS
 62
       131
100
AcDbCircle
 10
33.240062
 20
13.7470862613
 30
0.0
 40
0.21875
  0
CIRCLE
  5
122
100
AcDbEntity
  8
3
  6
CONTINUOUS
 62
       131
100
AcDbCircle
 10
33.240062
 20
13.7470862613
 30
0.0
 40
0.158
  0
CIRCLE
  5
123
100
AcDbEntity
  8
3
  6
DASHED
 62
       131
100
AcDbCircle
 10
33.240062
 20
13.7470862613
 30
0.0
 40
0.1875
  0
LINE
  5
124
100
AcDbEntity
  8
3
  6
CONTINUOUS
 62
       131
100
AcDbLine
 10
32.924522
 20
13.7470862613
 30
0.0
 11
33.555592
 21
13.7470862613
 31
0.0
  0
CIRCLE
  5
125
100
AcDbEntity
  8
3
  6
CONTINUOUS
 62
         4
100
AcDbCircle
 10
7.377302
 20
11.6541362613
 30
0.0
 40
0.3905
  0
CIRCLE
  5
126
100
AcDbEntity
  8
3
  6
CONTINUOUS
 62
         1
100
AcDbCircle
 10
7.377302
 20
11.6541362613
 30
0.0
 40
0.3125
  0
CIRCLE
  5
127
100
AcDbEntity
  8
3
  6
CONTINUOUS
 62
         1
100
AcDbCircle
 10
7.377302
 20
11.6541362613
 30
0.0
 40
0.375
  0
LINE
  5
128
100
AcDbEntity
  8
3
  6
CONTINUOUS
 62
         1
100
AcDbLine
 10
7.377302
 20
11.7984762613
 30
0.0
 11
7.502302
 21
11.7263062613
 31
0.0
  0
LINE
  5
129
100
AcDbEntity
  8
3
  6
CONTINUOUS
 62
         1
100
AcDbLine
 10
7.502302
 20
11.5819662613
 30
0.0
 11
7.502302
 21
11.7263062613
 31
0.0
  0
LINE
  5
12A
100
AcDbEntity
  8
3
  6
CONTINUOUS
 62
         1
100
AcDbLine
 10
7.377302
 20
11.5097962613
 30
0.0
 11
7.502302
 21
11.5819662613
 31
0.0
  0
LINE
  5
12B
100
AcDbEntity
  8
3
  6
CONTINUOUS
 62
         1
100
AcDbLine
 10
7.252302
 20
11.5819662613
 30
0.0
 11
7.377302
 21
11.5097962613
 31
0.0
  0
LINE
  5
12C
100
AcDbEntity
  8
3
  6
CONTINUOUS
 62
         1
100
AcDbLine
 10
7.252302
 20
11.5819662613
 30
0.0
 11
7.252302
 21
11.7263062613
 31
0.0
  0
LINE
  5
12D
100
AcDbEntity
  8
3
  6
CONTINUOUS
 62
         1
100
AcDbLine
 10
7.252302
 20
11.7263062613
 30
0.0
 11
7.377302
 21
11.7984762613
 31
0.0
  0
LINE
  5
12E
100
AcDbEntity
  8
3
  6
CONTINUOUS
 62
        15
100
AcDbLine
 10
34.425052
 20
12.5741362613
 30
0.0
 11
34.365052
 21
12.5741362613
 31
0.0
  0
LINE
  5
12F
100
AcDbEntity
  8
3
  6
CONTINUOUS
 62
        15
100
AcDbLine
 10
32.115052
 20
12.5741362613
 30
0.0
 11
32.055052
 21
12.5741362613
 31
0.0
  0
ARC
  5
130
100
AcDbEntity
  8
3
  6
CONTINUOUS
 62
        15
100
AcDbCircle
 10
32.7450548776
 20
11.6341362613
 30
0.0
 40
0.12
100
AcDbArc
 50
270.0
 51
360.0
  0
LINE
  5
131
100
AcDbEntity
  8
3
  6
CONTINUOUS
 62
        15
100
AcDbLine
 10
32.1150522594
 20
11.5141362613
 30
0.0
 11
32.7450548776
 21
11.5141362613
 31
0.0
  0
LINE
  5
132
100
AcDbEntity
  8
3
  6
CONTINUOUS
 62
       121
100
AcDbLine
 10
33.6000593334
 20
11.7210862613
 30
0.0
 11
32.8800446666
 21
11.7210862613
 31
0.0
  0
ARC
  5
133
100
AcDbEntity
  8
3
  6
CONTINUOUS
 62
       121
100
AcDbCircle
 10
32.315052
 20
12.2140862613
 30
0.0
 40
0.06
100
AcDbArc
 50
180.0
 51
270.0
  0
ARC
  5
134
100
AcDbEntity
  8
3
  6
CONTINUOUS
 62
       121
100
AcDbCircle
 10
34.165052
 20
12.2140862613
 30
0.0
 40
0.06
100
AcDbArc
 50
270.0
 51
360.0
  0
LINE
  5
135
100
AcDbEntity
  8
3
  6
CONTINUOUS
 62
       121
100
AcDbLine
 10
32.491552
 20
12.8855863263
 30
0.0
 11
32.865052
 21
13.2590863263
 31
0.0
  0
LINE
  5
136
100
AcDbEntity
  8
3
  6
CONTINUOUS
 62
       121
100
AcDbLine
 10
33.988552
 20
12.8855863263
 30
0.0
 11
33.615052
 21
13.2590863263
 31
0.0
  0
LINE
  5
137
100
AcDbEntity
  8
3
  6
CONTINUOUS
 62
       121
100
AcDbLine
 10
32.255052
 20
12.2140862613
 30
0.0
 11
32.255052
 21
12.6540862613
 31
0.0
  0
LINE
  5
138
100
AcDbEntity
  8
3
  6
CONTINUOUS
 62
       121
100
AcDbLine
 10
34.225052
 20
12.2140862613
 30
0.0
 11
34.225052
 21
12.6540862613
 31
0.0
  0
LINE
  5
139
100
AcDbEntity
  8
3
  6
CONTINUOUS
 62
       121
100
AcDbLine
 10
32.865052
 20
13.2590863263
 30
0.0
 11
33.615052
 21
13.2590863263
 31
0.0
  0
LINE
  5
13A
100
AcDbEntity
  8
3
  6
CONTINUOUS
 62
       121
100
AcDbLine
 10
32.315052
 20
12.1540862613
 30
0.0
 11
32.630052
 21
12.1540862613
 31
0.0
  0
LINE
  5
13B
100
AcDbEntity
  8
3
  6
CONTINUOUS
 62
       121
100
AcDbLine
 10
32.8800446666
 20
11.7210862613
 30
0.0
 11
32.630052
 21
12.1540862613
 31
0.0
  0
LINE
  5
13C
100
AcDbEntity
  8
3
  6
CONTINUOUS
 62
       121
100
AcDbLine
 10
33.6000593334
 20
11.7210862613
 30
0.0
 11
33.850052
 21
12.1540862613
 31
0.0
  0
LINE
  5
13D
100
AcDbEntity
  8
3
  6
CONTINUOUS
 62
       121
100
AcDbLine
 10
34.165052
 20
12.1540862613
 30
0.0
 11
33.850052
 21
12.1540862613
 31
0.0
  0
CIRCLE
  5
13E
100
AcDbEntity
  8
3
  6
DASHED
 62
        15
100
AcDbCircle
 10
25.768452
 20
19.0632862613
 30
0.0
 40
0.315
  0
CIRCLE
  5
13F
100
AcDbEntity
  8
3
  6
DASHED
 62
        15
100
AcDbCircle
 10
17.894452
 20
19.0632862613
 30
0.0
 40
0.315
  0
LINE
  5
140
100
AcDbEntity
  8
3
  6
CENTER
 62
        15
100
AcDbLine
 10
25.768452
 20
18.6406712664
 30
0.0
 11
25.768452
 21
19.4951805443
 31
0.0
  0
LINE
  5
141
100
AcDbEntity
  8
3
  6
CENTER
 62
        15
100
AcDbLine
 10
17.894452
 20
18.6406712664
 30
0.0
 11
17.894452
 21
19.4951805443
 31
0.0
  0
LINE
  5
142
100
AcDbEntity
  8
3
  6
CENTER
 62
        15
100
AcDbLine
 10
26.831452
 20
18.6157579062
 30
0.0
 11
26.831452
 21
19.4810271762
 31
0.0
  0
CIRCLE
  5
143
100
AcDbEntity
  8
3
  6
DASHED
 62
        15
100
AcDbCircle
 10
26.831452
 20
19.0632862613
 30
0.0
 40
0.3125
  0
CIRCLE
  5
144
100
AcDbEntity
  8
3
  6
DASHED
 62
        15
100
AcDbCircle
 10
16.831452
 20
19.0632862613
 30
0.0
 40
0.3125
  0
LINE
  5
145
100
AcDbEntity
  8
3
  6
CENTER
 62
        15
100
AcDbLine
 10
16.831452
 20
18.6157579062
 30
0.0
 11
16.831452
 21
19.4810271762
 31
0.0
  0
LINE
  5
146
100
AcDbEntity
  8
3
  6
CONTINUOUS
 62
        15
100
AcDbLine
 10
26.894852
 20
19.4382862613
 30
0.0
 11
29.581452
 21
19.4382862613
 31
0.0
  0
LINE
  5
147
100
AcDbEntity
  8
3
  6
CONTINUOUS
 62
        15
100
AcDbLine
 10
26.894852
 20
18.6882862613
 30
0.0
 11
29.581452
 21
18.6882862613
 31
0.0
  0
LINE
  5
148
100
AcDbEntity
  8
3
  6
CONTINUOUS
 62
        15
100
AcDbLine
 10
7.817312
 20
12.5741362613
 30
0.0
 11
7.814792
 21
12.5741362613
 31
0.0
  0
LINE
  5
149
100
AcDbEntity
  8
3
  6
CONTINUOUS
 62
        15
100
AcDbLine
 10
7.817312
 20
11.5741362613
 30
0.0
 11
7.877312
 21
11.5141362613
 31
0.0
  0
LINE
  5
14A
100
AcDbEntity
  8
3
  6
CONTINUOUS
 62
        15
100
AcDbLine
 10
3.937312
 20
12.4181362613
 30
0.0
 11
3.939792
 21
12.4181362613
 31
0.0
  0
LINE
  5
14B
100
AcDbEntity
  8
3
  6
CONTINUOUS
 62
        15
100
AcDbLine
 10
3.937312
 20
12.5741362613
 30
0.0
 11
3.939792
 21
12.5741362613
 31
0.0
  0
LINE
  5
14C
100
AcDbEntity
  8
3
  6
CONTINUOUS
 62
        15
100
AcDbLine
 10
3.937312
 20
11.7301362613
 30
0.0
 11
3.939792
 21
11.7301362613
 31
0.0
  0
LINE
  5
14D
100
AcDbEntity
  8
3
  6
CONTINUOUS
 62
        15
100
AcDbLine
 10
3.937312
 20
11.5741362613
 30
0.0
 11
3.939792
 21
11.5741362613
 31
0.0
  0
LINE
  5
14E
100
AcDbEntity
  8
3
  6
CENTER
 62
       131
100
AcDbLine
 10
22.894852
 20
17.8132862613
 30
0.0
 11
23.9834159275
 21
17.8132862613
 31
0.0
  0
LINE
  5
14F
100
AcDbEntity
  8
3
  6
CENTER
 62
       131
100
AcDbLine
 10
25.7669427353
 20
20.3132862613
 30
0.0
 11
27.141252
 21
20.3132862613
 31
0.0
  0
LINE
  5
150
100
AcDbEntity
  8
3
  6
CENTER
 62
       131
100
AcDbLine
 10
19.912452
 20
17.8132862613
 30
0.0
 11
20.767952
 21
17.8132862613
 31
0.0
  0
LINE
  5
151
100
AcDbEntity
  8
3
  6
CENTER
 62
       131
100
AcDbLine
 10
19.8297236737
 20
20.3132862613
 30
0.0
 11
20.767952
 21
20.3132862613
 31
0.0
  0
LINE
  5
152
100
AcDbEntity
  8
3
  6
CENTER
 62
       131
100
AcDbLine
 10
26.357752
 20
13.7470862613
 30
0.0
 11
27.255452
 21
13.7470862613
 31
0.0
  0
LINE
  5
153
100
AcDbEntity
  8
3
  6
CONTINUOUS
 62
        15
100
AcDbLine
 10
26.894852
 20
18.2482862613
 30
0.0
 11
29.581452
 21
18.2482862613
 31
0.0
  0
LINE
  5
154
100
AcDbEntity
  8
3
  6
CONTINUOUS
 62
        15
100
AcDbLine
 10
21.314952
 20
18.2482862613
 30
0.0
 11
22.347852
 21
18.2482862613
 31
0.0
  0
LINE
  5
155
100
AcDbEntity
  8
3
  6
CONTINUOUS
 62
        15
100
AcDbLine
 10
14.081452
 20
18.2482862613
 30
0.0
 11
16.267952
 21
18.2482862613
 31
0.0
  0
LINE
  5
156
100
AcDbEntity
  8
3
  6
CONTINUOUS
 62
        15
100
AcDbLine
 10
26.894852
 20
19.8782862613
 30
0.0
 11
29.581452
 21
19.8782862613
 31
0.0
  0
LINE
  5
157
100
AcDbEntity
  8
3
  6
CONTINUOUS
 62
        15
100
AcDbLine
 10
21.314952
 20
19.8782862613
 30
0.0
 11
22.347852
 21
19.8782862613
 31
0.0
  0
LINE
  5
158
100
AcDbEntity
  8
3
  6
CONTINUOUS
 62
        15
100
AcDbLine
 10
14.081452
 20
19.8782862613
 30
0.0
 11
16.267952
 21
19.8782862613
 31
0.0
  0
LINE
  5
159
100
AcDbEntity
  8
3
  6
CONTINUOUS
 62
        15
100
AcDbLine
 10
26.894852
 20
18.3132862613
 30
0.0
 11
29.581452
 21
18.3132862613
 31
0.0
  0
LINE
  5
15A
100
AcDbEntity
  8
3
  6
CONTINUOUS
 62
        15
100
AcDbLine
 10
21.314952
 20
18.3132862613
 30
0.0
 11
22.347852
 21
18.3132862613
 31
0.0
  0
LINE
  5
15B
100
AcDbEntity
  8
3
  6
CONTINUOUS
 62
        15
100
AcDbLine
 10
14.081452
 20
18.3132862613
 30
0.0
 11
16.267952
 21
18.3132862613
 31
0.0
  0
LINE
  5
15C
100
AcDbEntity
  8
3
  6
CONTINUOUS
 62
        15
100
AcDbLine
 10
26.894852
 20
19.8132862613
 30
0.0
 11
29.581452
 21
19.8132862613
 31
0.0
  0
LINE
  5
15D
100
AcDbEntity
  8
3
  6
CONTINUOUS
 62
        15
100
AcDbLine
 10
21.314952
 20
19.8132862613
 30
0.0
 11
22.347852
 21
19.8132862613
 31
0.0
  0
LINE
  5
15E
100
AcDbEntity
  8
3
  6
CONTINUOUS
 62
        15
100
AcDbLine
 10
14.081452
 20
19.8132862613
 30
0.0
 11
16.267952
 21
19.8132862613
 31
0.0
  0
LINE
  5
15F
100
AcDbEntity
  8
3
  6
CONTINUOUS
 62
        15
100
AcDbLine
 10
14.081452
 20
17.0632862613
 30
0.0
 11
14.081452
 21
21.0632862613
 31
0.0
  0
LINE
  5
160
100
AcDbEntity
  8
3
  6
CONTINUOUS
 62
        15
100
AcDbLine
 10
14.081452
 20
17.0632862613
 30
0.0
 11
29.581452
 21
17.0632862613
 31
0.0
  0
LINE
  5
161
100
AcDbEntity
  8
3
  6
CONTINUOUS
 62
        15
100
AcDbLine
 10
29.581452
 20
17.0632862613
 30
0.0
 11
29.581452
 21
21.0632862613
 31
0.0
  0
LINE
  5
162
100
AcDbEntity
  8
3
  6
CONTINUOUS
 62
        15
100
AcDbLine
 10
14.081452
 20
21.0632862613
 30
0.0
 11
29.581452
 21
21.0632862613
 31
0.0
  0
LINE
  5
163
100
AcDbEntity
  8
3
  6
DASHED
 62
        15
100
AcDbLine
 10
22.081652
 20
17.0632862613
 30
0.0
 11
22.081652
 21
21.0632862613
 31
0.0
  0
LINE
  5
164
100
AcDbEntity
  8
3
  6
DASHED
 62
        15
100
AcDbLine
 10
21.581152
 20
17.0632862613
 30
0.0
 11
21.581152
 21
21.0632862613
 31
0.0
  0
LINE
  5
165
100
AcDbEntity
  8
3
  6
CONTINUOUS
 62
        15
100
AcDbLine
 10
14.706452
 20
18.3132862613
 30
0.0
 11
14.706452
 21
18.7334862613
 31
0.0
  0
LINE
  5
166
100
AcDbEntity
  8
3
  6
CONTINUOUS
 62
        15
100
AcDbLine
 10
14.706452
 20
19.3931862613
 30
0.0
 11
14.706452
 21
19.8132862613
 31
0.0
  0
LINE
  5
167
100
AcDbEntity
  8
3
  6
CONTINUOUS
 62
       221
100
AcDbLine
 10
16.267952
 20
17.0787862613
 30
0.0
 11
16.767952
 21
17.0787862613
 31
0.0
  0
LINE
  5
168
100
AcDbEntity
  8
3
  6
CONTINUOUS
 62
       131
100
AcDbLine
 10
16.767952
 20
17.0787862613
 30
0.0
 11
16.767952
 21
21.0477862613
 31
0.0
  0
LINE
  5
169
100
AcDbEntity
  8
3
  6
CONTINUOUS
 62
       221
100
AcDbLine
 10
16.267952
 20
21.0477862613
 30
0.0
 11
16.767952
 21
21.0477862613
 31
0.0
  0
LINE
  5
16A
100
AcDbEntity
  8
3
  6
CONTINUOUS
 62
       221
100
AcDbLine
 10
16.267952
 20
17.0787862613
 30
0.0
 11
16.267952
 21
21.0477862613
 31
0.0
  0
LINE
  5
16B
100
AcDbEntity
  8
3
  6
CONTINUOUS
 62
       131
100
AcDbLine
 10
16.767952
 20
17.0787862613
 30
0.0
 11
20.767952
 21
17.0787862613
 31
0.0
  0
LINE
  5
16C
100
AcDbEntity
  8
3
  6
CONTINUOUS
 62
       131
100
AcDbLine
 10
20.767952
 20
17.0787862613
 30
0.0
 11
20.767952
 21
21.0477862613
 31
0.0
  0
LINE
  5
16D
100
AcDbEntity
  8
3
  6
CONTINUOUS
 62
       131
100
AcDbLine
 10
16.767952
 20
21.0477862613
 30
0.0
 11
20.767952
 21
21.0477862613
 31
0.0
  0
LINE
  5
16E
100
AcDbEntity
  8
3
  6
CONTINUOUS
 62
       131
100
AcDbLine
 10
17.767952
 20
19.7341862613
 30
0.0
 11
17.767952
 21
21.0477862613
 31
0.0
  0
LINE
  5
16F
100
AcDbEntity
  8
3
  6
CONTINUOUS
 62
       131
100
AcDbLine
 10
18.017952
 20
19.7341862613
 30
0.0
 11
18.017952
 21
21.0477862613
 31
0.0
  0
LINE
  5
170
100
AcDbEntity
  8
3
  6
CONTINUOUS
 62
       131
100
AcDbLine
 10
17.767952
 20
17.0787862613
 30
0.0
 11
17.767952
 21
18.3924862613
 31
0.0
  0
LINE
  5
171
100
AcDbEntity
  8
3
  6
CONTINUOUS
 62
       131
100
AcDbLine
 10
18.017952
 20
17.0787862613
 30
0.0
 11
18.017952
 21
18.3924862613
 31
0.0
  0
LINE
  5
172
100
AcDbEntity
  8
3
  6
CONTINUOUS
 62
       163
100
AcDbLine
 10
20.767952
 20
17.0787862613
 30
0.0
 11
21.314952
 21
17.0787862613
 31
0.0
  0
LINE
  5
173
100
AcDbEntity
  8
3
  6
CONTINUOUS
 62
       163
100
AcDbLine
 10
21.314952
 20
17.0787862613
 30
0.0
 11
21.314952
 21
21.0477862613
 31
0.0
  0
LINE
  5
174
100
AcDbEntity
  8
3
  6
CONTINUOUS
 62
       163
100
AcDbLine
 10
20.767952
 20
21.0477862613
 30
0.0
 11
21.314952
 21
21.0477862613
 31
0.0
  0
LINE
  5
175
100
AcDbEntity
  8
3
  6
CONTINUOUS
 62
         1
100
AcDbLine
 10
20.377452
 20
20.6742862613
 30
0.0
 11
20.455452
 21
20.6292862613
 31
0.0
  0
LINE
  5
176
100
AcDbEntity
  8
3
  6
CONTINUOUS
 62
         1
100
AcDbLine
 10
20.455452
 20
20.6292862613
 30
0.0
 11
20.533452
 21
20.6742862613
 31
0.0
  0
LINE
  5
177
100
AcDbEntity
  8
3
  6
CONTINUOUS
 62
         1
100
AcDbLine
 10
20.533452
 20
20.6742862613
 30
0.0
 11
20.533452
 21
20.7643862613
 31
0.0
  0
LINE
  5
178
100
AcDbEntity
  8
3
  6
CONTINUOUS
 62
         1
100
AcDbLine
 10
20.455452
 20
20.8093862613
 30
0.0
 11
20.533452
 21
20.7643862613
 31
0.0
  0
LINE
  5
179
100
AcDbEntity
  8
3
  6
CONTINUOUS
 62
         1
100
AcDbLine
 10
20.377452
 20
20.7643862613
 30
0.0
 11
20.455452
 21
20.8093862613
 31
0.0
  0
LINE
  5
17A
100
AcDbEntity
  8
3
  6
CONTINUOUS
 62
         1
100
AcDbLine
 10
20.377452
 20
20.6742862613
 30
0.0
 11
20.377452
 21
20.7643862613
 31
0.0
  0
LINE
  5
17B
100
AcDbEntity
  8
3
  6
CONTINUOUS
 62
         1
100
AcDbLine
 10
20.377452
 20
17.3622862613
 30
0.0
 11
20.455452
 21
17.3172862613
 31
0.0
  0
LINE
  5
17C
100
AcDbEntity
  8
3
  6
CONTINUOUS
 62
         1
100
AcDbLine
 10
20.455452
 20
17.3172862613
 30
0.0
 11
20.533452
 21
17.3622862613
 31
0.0
  0
LINE
  5
17D
100
AcDbEntity
  8
3
  6
CONTINUOUS
 62
         1
100
AcDbLine
 10
20.533452
 20
17.3622862613
 30
0.0
 11
20.533452
 21
17.4523862613
 31
0.0
  0
LINE
  5
17E
100
AcDbEntity
  8
3
  6
CONTINUOUS
 62
         1
100
AcDbLine
 10
20.455452
 20
17.4973862613
 30
0.0
 11
20.533452
 21
17.4523862613
 31
0.0
  0
LINE
  5
17F
100
AcDbEntity
  8
3
  6
CONTINUOUS
 62
         1
100
AcDbLine
 10
20.377452
 20
17.4523862613
 30
0.0
 11
20.455452
 21
17.4973862613
 31
0.0
  0
LINE
  5
180
100
AcDbEntity
  8
3
  6
CONTINUOUS
 62
         1
100
AcDbLine
 10
20.377452
 20
17.3622862613
 30
0.0
 11
20.377452
 21
17.4523862613
 31
0.0
  0
LINE
  5
181
100
AcDbEntity
  8
3
  6
CONTINUOUS
 62
         1
100
AcDbLine
 10
17.377452
 20
17.3622862613
 30
0.0
 11
17.455452
 21
17.3172862613
 31
0.0
  0
LINE
  5
182
100
AcDbEntity
  8
3
  6
CONTINUOUS
 62
         1
100
AcDbLine
 10
17.455452
 20
17.3172862613
 30
0.0
 11
17.533452
 21
17.3622862613
 31
0.0
  0
LINE
  5
183
100
AcDbEntity
  8
3
  6
CONTINUOUS
 62
         1
100
AcDbLine
 10
17.533452
 20
17.3622862613
 30
0.0
 11
17.533452
 21
17.4523862613
 31
0.0
  0
LINE
  5
184
100
AcDbEntity
  8
3
  6
CONTINUOUS
 62
         1
100
AcDbLine
 10
17.455452
 20
17.4973862613
 30
0.0
 11
17.533452
 21
17.4523862613
 31
0.0
  0
LINE
  5
185
100
AcDbEntity
  8
3
  6
CONTINUOUS
 62
         1
100
AcDbLine
 10
17.377452
 20
17.4523862613
 30
0.0
 11
17.455452
 21
17.4973862613
 31
0.0
  0
LINE
  5
186
100
AcDbEntity
  8
3
  6
CONTINUOUS
 62
         1
100
AcDbLine
 10
17.377452
 20
17.3622862613
 30
0.0
 11
17.377452
 21
17.4523862613
 31
0.0
  0
LINE
  5
187
100
AcDbEntity
  8
3
  6
DASHED
 62
         1
100
AcDbLine
 10
21.247452
 20
20.0320862613
 30
0.0
 11
21.309952
 21
20.0945862613
 31
0.0
  0
LINE
  5
188
100
AcDbEntity
  8
3
  6
DASHED
 62
         1
100
AcDbLine
 10
21.309952
 20
20.0945862613
 30
0.0
 11
21.309952
 21
20.5320862613
 31
0.0
  0
LINE
  5
189
100
AcDbEntity
  8
3
  6
DASHED
 62
         1
100
AcDbLine
 10
21.247452
 20
20.5945862613
 30
0.0
 11
21.309952
 21
20.5320862613
 31
0.0
  0
LINE
  5
18A
100
AcDbEntity
  8
3
  6
DASHED
 62
         1
100
AcDbLine
 10
20.934952
 20
20.5945862613
 30
0.0
 11
21.247452
 21
20.5945862613
 31
0.0
  0
LINE
  5
18B
100
AcDbEntity
  8
3
  6
DASHED
 62
         1
100
AcDbLine
 10
20.934952
 20
20.3132862613
 30
0.0
 11
20.934952
 21
20.5945862613
 31
0.0
  0
LINE
  5
18C
100
AcDbEntity
  8
3
  6
DASHED
 62
         1
100
AcDbLine
 10
20.934952
 20
20.0320862613
 30
0.0
 11
20.934952
 21
20.3132862613
 31
0.0
  0
LINE
  5
18D
100
AcDbEntity
  8
3
  6
DASHED
 62
         1
100
AcDbLine
 10
20.934952
 20
20.0320862613
 30
0.0
 11
21.247452
 21
20.0320862613
 31
0.0
  0
LINE
  5
18E
100
AcDbEntity
  8
3
  6
DASHED
 62
         1
100
AcDbLine
 10
21.247452
 20
20.0320862613
 30
0.0
 11
21.247452
 21
20.5945862613
 31
0.0
  0
LINE
  5
18F
100
AcDbEntity
  8
3
  6
DASHED
 62
         1
100
AcDbLine
 10
20.099952
 20
20.1257862613
 30
0.0
 11
20.934952
 21
20.1257862613
 31
0.0
  0
LINE
  5
190
100
AcDbEntity
  8
3
  6
DASHED
 62
         1
100
AcDbLine
 10
20.099952
 20
20.1257862613
 30
0.0
 11
20.099952
 21
20.5007862613
 31
0.0
  0
LINE
  5
191
100
AcDbEntity
  8
3
  6
DASHED
 62
         1
100
AcDbLine
 10
20.059952
 20
20.1657862613
 30
0.0
 11
20.099952
 21
20.1257862613
 31
0.0
  0
LINE
  5
192
100
AcDbEntity
  8
3
  6
DASHED
 62
         1
100
AcDbLine
 10
20.059952
 20
20.1657862613
 30
0.0
 11
20.059952
 21
20.4607862613
 31
0.0
  0
LINE
  5
193
100
AcDbEntity
  8
3
  6
DASHED
 62
         1
100
AcDbLine
 10
20.059952
 20
20.4607862613
 30
0.0
 11
20.099952
 21
20.5007862613
 31
0.0
  0
LINE
  5
194
100
AcDbEntity
  8
3
  6
DASHED
 62
         1
100
AcDbLine
 10
20.099952
 20
20.5007862613
 30
0.0
 11
20.934952
 21
20.5007862613
 31
0.0
  0
LINE
  5
195
100
AcDbEntity
  8
3
  6
DASHED
 62
         1
100
AcDbLine
 10
21.247452
 20
17.5320862613
 30
0.0
 11
21.309952
 21
17.5945862613
 31
0.0
  0
LINE
  5
196
100
AcDbEntity
  8
3
  6
DASHED
 62
         1
100
AcDbLine
 10
21.309952
 20
17.5945862613
 30
0.0
 11
21.309952
 21
18.0320862613
 31
0.0
  0
LINE
  5
197
100
AcDbEntity
  8
3
  6
DASHED
 62
         1
100
AcDbLine
 10
21.247452
 20
18.0945862613
 30
0.0
 11
21.309952
 21
18.0320862613
 31
0.0
  0
LINE
  5
198
100
AcDbEntity
  8
3
  6
DASHED
 62
         1
100
AcDbLine
 10
20.934952
 20
18.0945862613
 30
0.0
 11
21.247452
 21
18.0945862613
 31
0.0
  0
LINE
  5
199
100
AcDbEntity
  8
3
  6
DASHED
 62
         1
100
AcDbLine
 10
20.934952
 20
17.8132862613
 30
0.0
 11
20.934952
 21
18.0945862613
 31
0.0
  0
LINE
  5
19A
100
AcDbEntity
  8
3
  6
DASHED
 62
         1
100
AcDbLine
 10
20.934952
 20
17.5320862613
 30
0.0
 11
20.934952
 21
17.8132862613
 31
0.0
  0
LINE
  5
19B
100
AcDbEntity
  8
3
  6
DASHED
 62
         1
100
AcDbLine
 10
20.934952
 20
17.5320862613
 30
0.0
 11
21.247452
 21
17.5320862613
 31
0.0
  0
LINE
  5
19C
100
AcDbEntity
  8
3
  6
DASHED
 62
         1
100
AcDbLine
 10
21.247452
 20
17.5320862613
 30
0.0
 11
21.247452
 21
18.0945862613
 31
0.0
  0
LINE
  5
19D
100
AcDbEntity
  8
3
  6
DASHED
 62
         1
100
AcDbLine
 10
20.099952
 20
17.6257862613
 30
0.0
 11
20.934952
 21
17.6257862613
 31
0.0
  0
LINE
  5
19E
100
AcDbEntity
  8
3
  6
DASHED
 62
         1
100
AcDbLine
 10
20.099952
 20
17.6257862613
 30
0.0
 11
20.099952
 21
18.0007862613
 31
0.0
  0
LINE
  5
19F
100
AcDbEntity
  8
3
  6
DASHED
 62
         1
100
AcDbLine
 10
20.059952
 20
17.6657862613
 30
0.0
 11
20.099952
 21
17.6257862613
 31
0.0
  0
LINE
  5
1A0
100
AcDbEntity
  8
3
  6
DASHED
 62
         1
100
AcDbLine
 10
20.059952
 20
17.6657862613
 30
0.0
 11
20.059952
 21
17.9607862613
 31
0.0
  0
LINE
  5
1A1
100
AcDbEntity
  8
3
  6
DASHED
 62
         1
100
AcDbLine
 10
20.059952
 20
17.9607862613
 30
0.0
 11
20.099952
 21
18.0007862613
 31
0.0
  0
LINE
  5
1A2
100
AcDbEntity
  8
3
  6
DASHED
 62
         1
100
AcDbLine
 10
20.099952
 20
18.0007862613
 30
0.0
 11
20.934952
 21
18.0007862613
 31
0.0
  0
LINE
  5
1A3
100
AcDbEntity
  8
3
  6
CONTINUOUS
 62
       131
100
AcDbLine
 10
22.894852
 20
17.0787862613
 30
0.0
 11
22.894852
 21
21.0477862613
 31
0.0
  0
LINE
  5
1A4
100
AcDbEntity
  8
3
  6
CONTINUOUS
 62
       131
100
AcDbLine
 10
22.894852
 20
17.0787862613
 30
0.0
 11
26.894852
 21
17.0787862613
 31
0.0
  0
LINE
  5
1A5
100
AcDbEntity
  8
3
  6
CONTINUOUS
 62
       131
100
AcDbLine
 10
26.894852
 20
17.0787862613
 30
0.0
 11
26.894852
 21
21.0477862613
 31
0.0
  0
LINE
  5
1A6
100
AcDbEntity
  8
3
  6
CONTINUOUS
 62
       131
100
AcDbLine
 10
22.894852
 20
21.0477862613
 30
0.0
 11
26.894852
 21
21.0477862613
 31
0.0
  0
LINE
  5
1A7
100
AcDbEntity
  8
3
  6
CONTINUOUS
 62
       131
100
AcDbLine
 10
25.894852
 20
17.0787862613
 30
0.0
 11
25.894852
 21
18.3924862613
 31
0.0
  0
LINE
  5
1A8
100
AcDbEntity
  8
3
  6
CONTINUOUS
 62
       131
100
AcDbLine
 10
25.644852
 20
17.0787862613
 30
0.0
 11
25.644852
 21
18.3924862613
 31
0.0
  0
LINE
  5
1A9
100
AcDbEntity
  8
3
  6
CONTINUOUS
 62
       131
100
AcDbLine
 10
25.894852
 20
19.7341862613
 30
0.0
 11
25.894852
 21
21.0477862613
 31
0.0
  0
LINE
  5
1AA
100
AcDbEntity
  8
3
  6
CONTINUOUS
 62
       131
100
AcDbLine
 10
25.644852
 20
19.7341862613
 30
0.0
 11
25.644852
 21
21.0477862613
 31
0.0
  0
LINE
  5
1AB
100
AcDbEntity
  8
3
  6
CONTINUOUS
 62
       163
100
AcDbLine
 10
22.347852
 20
17.0787862613
 30
0.0
 11
22.894852
 21
17.0787862613
 31
0.0
  0
LINE
  5
1AC
100
AcDbEntity
  8
3
  6
CONTINUOUS
 62
       163
100
AcDbLine
 10
22.347852
 20
21.0477862613
 30
0.0
 11
22.894852
 21
21.0477862613
 31
0.0
  0
LINE
  5
1AD
100
AcDbEntity
  8
3
  6
CONTINUOUS
 62
       163
100
AcDbLine
 10
22.347852
 20
17.0787862613
 30
0.0
 11
22.347852
 21
21.0477862613
 31
0.0
  0
LINE
  5
1AE
100
AcDbEntity
  8
3
  6
CONTINUOUS
 62
         1
100
AcDbLine
 10
26.129352
 20
17.3622862613
 30
0.0
 11
26.207352
 21
17.3172862613
 31
0.0
  0
LINE
  5
1AF
100
AcDbEntity
  8
3
  6
CONTINUOUS
 62
         1
100
AcDbLine
 10
26.207352
 20
17.3172862613
 30
0.0
 11
26.285352
 21
17.3622862613
 31
0.0
  0
LINE
  5
1B0
100
AcDbEntity
  8
3
  6
CONTINUOUS
 62
         1
100
AcDbLine
 10
26.285352
 20
17.3622862613
 30
0.0
 11
26.285352
 21
17.4523862613
 31
0.0
  0
LINE
  5
1B1
100
AcDbEntity
  8
3
  6
CONTINUOUS
 62
         1
100
AcDbLine
 10
26.207352
 20
17.4973862613
 30
0.0
 11
26.285352
 21
17.4523862613
 31
0.0
  0
LINE
  5
1B2
100
AcDbEntity
  8
3
  6
CONTINUOUS
 62
         1
100
AcDbLine
 10
26.129352
 20
17.4523862613
 30
0.0
 11
26.207352
 21
17.4973862613
 31
0.0
  0
LINE
  5
1B3
100
AcDbEntity
  8
3
  6
CONTINUOUS
 62
         1
100
AcDbLine
 10
26.129352
 20
17.3622862613
 30
0.0
 11
26.129352
 21
17.4523862613
 31
0.0
  0
LINE
  5
1B4
100
AcDbEntity
  8
3
  6
CONTINUOUS
 62
         1
100
AcDbLine
 10
23.129352
 20
17.3622862613
 30
0.0
 11
23.207352
 21
17.3172862613
 31
0.0
  0
LINE
  5
1B5
100
AcDbEntity
  8
3
  6
CONTINUOUS
 62
         1
100
AcDbLine
 10
23.207352
 20
17.3172862613
 30
0.0
 11
23.285352
 21
17.3622862613
 31
0.0
  0
LINE
  5
1B6
100
AcDbEntity
  8
3
  6
CONTINUOUS
 62
         1
100
AcDbLine
 10
23.285352
 20
17.3622862613
 30
0.0
 11
23.285352
 21
17.4523862613
 31
0.0
  0
LINE
  5
1B7
100
AcDbEntity
  8
3
  6
CONTINUOUS
 62
         1
100
AcDbLine
 10
23.207352
 20
17.4973862613
 30
0.0
 11
23.285352
 21
17.4523862613
 31
0.0
  0
LINE
  5
1B8
100
AcDbEntity
  8
3
  6
CONTINUOUS
 62
         1
100
AcDbLine
 10
23.129352
 20
17.4523862613
 30
0.0
 11
23.207352
 21
17.4973862613
 31
0.0
  0
LINE
  5
1B9
100
AcDbEntity
  8
3
  6
CONTINUOUS
 62
         1
100
AcDbLine
 10
23.129352
 20
17.3622862613
 30
0.0
 11
23.129352
 21
17.4523862613
 31
0.0
  0
LINE
  5
1BA
100
AcDbEntity
  8
3
  6
CONTINUOUS
 62
         1
100
AcDbLine
 10
23.129352
 20
20.6742862613
 30
0.0
 11
23.207352
 21
20.6292862613
 31
0.0
  0
LINE
  5
1BB
100
AcDbEntity
  8
3
  6
CONTINUOUS
 62
         1
100
AcDbLine
 10
23.207352
 20
20.6292862613
 30
0.0
 11
23.285352
 21
20.6742862613
 31
0.0
  0
LINE
  5
1BC
100
AcDbEntity
  8
3
  6
CONTINUOUS
 62
         1
100
AcDbLine
 10
23.285352
 20
20.6742862613
 30
0.0
 11
23.285352
 21
20.7643862613
 31
0.0
  0
LINE
  5
1BD
100
AcDbEntity
  8
3
  6
CONTINUOUS
 62
         1
100
AcDbLine
 10
23.207352
 20
20.8093862613
 30
0.0
 11
23.285352
 21
20.7643862613
 31
0.0
  0
LINE
  5
1BE
100
AcDbEntity
  8
3
  6
CONTINUOUS
 62
         1
100
AcDbLine
 10
23.129352
 20
20.7643862613
 30
0.0
 11
23.207352
 21
20.8093862613
 31
0.0
  0
LINE
  5
1BF
100
AcDbEntity
  8
3
  6
CONTINUOUS
 62
         1
100
AcDbLine
 10
23.129352
 20
20.6742862613
 30
0.0
 11
23.129352
 21
20.7643862613
 31
0.0
  0
LINE
  5
1C0
100
AcDbEntity
  8
3
  6
CONTINUOUS
 62
         1
100
AcDbLine
 10
26.129352
 20
20.6742862613
 30
0.0
 11
26.207352
 21
20.6292862613
 31
0.0
  0
LINE
  5
1C1
100
AcDbEntity
  8
3
  6
CONTINUOUS
 62
         1
100
AcDbLine
 10
26.207352
 20
20.6292862613
 30
0.0
 11
26.285352
 21
20.6742862613
 31
0.0
  0
LINE
  5
1C2
100
AcDbEntity
  8
3
  6
CONTINUOUS
 62
         1
100
AcDbLine
 10
26.285352
 20
20.6742862613
 30
0.0
 11
26.285352
 21
20.7643862613
 31
0.0
  0
LINE
  5
1C3
100
AcDbEntity
  8
3
  6
CONTINUOUS
 62
         1
100
AcDbLine
 10
26.207352
 20
20.8093862613
 30
0.0
 11
26.285352
 21
20.7643862613
 31
0.0
  0
LINE
  5
1C4
100
AcDbEntity
  8
3
  6
CONTINUOUS
 62
         1
100
AcDbLine
 10
26.129352
 20
20.7643862613
 30
0.0
 11
26.207352
 21
20.8093862613
 31
0.0
  0
LINE
  5
1C5
100
AcDbEntity
  8
3
  6
CONTINUOUS
 62
         1
100
AcDbLine
 10
26.129352
 20
20.6742862613
 30
0.0
 11
26.129352
 21
20.7643862613
 31
0.0
  0
LINE
  5
1C6
100
AcDbEntity
  8
3
  6
DASHED
 62
         1
100
AcDbLine
 10
22.352852
 20
20.0945862613
 30
0.0
 11
22.415352
 21
20.0320862613
 31
0.0
  0
LINE
  5
1C7
100
AcDbEntity
  8
3
  6
DASHED
 62
         1
100
AcDbLine
 10
22.352852
 20
20.0945862613
 30
0.0
 11
22.352852
 21
20.5320862613
 31
0.0
  0
LINE
  5
1C8
100
AcDbEntity
  8
3
  6
DASHED
 62
         1
100
AcDbLine
 10
22.352852
 20
20.5320862613
 30
0.0
 11
22.415352
 21
20.5945862613
 31
0.0
  0
LINE
  5
1C9
100
AcDbEntity
  8
3
  6
DASHED
 62
         1
100
AcDbLine
 10
22.415352
 20
20.5945862613
 30
0.0
 11
22.727852
 21
20.5945862613
 31
0.0
  0
LINE
  5
1CA
100
AcDbEntity
  8
3
  6
DASHED
 62
         1
100
AcDbLine
 10
22.727852
 20
20.3132862613
 30
0.0
 11
22.727852
 21
20.5945862613
 31
0.0
  0
LINE
  5
1CB
100
AcDbEntity
  8
3
  6
DASHED
 62
         1
100
AcDbLine
 10
22.727852
 20
20.0320862613
 30
0.0
 11
22.727852
 21
20.3132862613
 31
0.0
  0
LINE
  5
1CC
100
AcDbEntity
  8
3
  6
DASHED
 62
         1
100
AcDbLine
 10
22.415352
 20
20.0320862613
 30
0.0
 11
22.727852
 21
20.0320862613
 31
0.0
  0
LINE
  5
1CD
100
AcDbEntity
  8
3
  6
DASHED
 62
         1
100
AcDbLine
 10
22.415352
 20
20.0320862613
 30
0.0
 11
22.415352
 21
20.5945862613
 31
0.0
  0
LINE
  5
1CE
100
AcDbEntity
  8
3
  6
DASHED
 62
         1
100
AcDbLine
 10
22.727852
 20
20.1257862613
 30
0.0
 11
23.562852
 21
20.1257862613
 31
0.0
  0
LINE
  5
1CF
100
AcDbEntity
  8
3
  6
DASHED
 62
         1
100
AcDbLine
 10
23.562852
 20
20.1257862613
 30
0.0
 11
23.562852
 21
20.5007862613
 31
0.0
  0
LINE
  5
1D0
100
AcDbEntity
  8
3
  6
DASHED
 62
         1
100
AcDbLine
 10
23.562852
 20
20.1257862613
 30
0.0
 11
23.602852
 21
20.1657862613
 31
0.0
  0
LINE
  5
1D1
100
AcDbEntity
  8
3
  6
DASHED
 62
         1
100
AcDbLine
 10
23.602852
 20
20.1657862613
 30
0.0
 11
23.602852
 21
20.4607862613
 31
0.0
  0
LINE
  5
1D2
100
AcDbEntity
  8
3
  6
DASHED
 62
         1
100
AcDbLine
 10
23.562852
 20
20.5007862613
 30
0.0
 11
23.602852
 21
20.4607862613
 31
0.0
  0
LINE
  5
1D3
100
AcDbEntity
  8
3
  6
DASHED
 62
         1
100
AcDbLine
 10
22.727852
 20
20.5007862613
 30
0.0
 11
23.562852
 21
20.5007862613
 31
0.0
  0
LINE
  5
1D4
100
AcDbEntity
  8
3
  6
DASHED
 62
         1
100
AcDbLine
 10
22.352852
 20
17.5945862613
 30
0.0
 11
22.415352
 21
17.5320862613
 31
0.0
  0
LINE
  5
1D5
100
AcDbEntity
  8
3
  6
DASHED
 62
         1
100
AcDbLine
 10
22.352852
 20
17.5945862613
 30
0.0
 11
22.352852
 21
18.0320862613
 31
0.0
  0
LINE
  5
1D6
100
AcDbEntity
  8
3
  6
DASHED
 62
         1
100
AcDbLine
 10
22.352852
 20
18.0320862613
 30
0.0
 11
22.415352
 21
18.0945862613
 31
0.0
  0
LINE
  5
1D7
100
AcDbEntity
  8
3
  6
DASHED
 62
         1
100
AcDbLine
 10
22.415352
 20
18.0945862613
 30
0.0
 11
22.727852
 21
18.0945862613
 31
0.0
  0
LINE
  5
1D8
100
AcDbEntity
  8
3
  6
DASHED
 62
         1
100
AcDbLine
 10
22.727852
 20
17.8132862613
 30
0.0
 11
22.727852
 21
18.0945862613
 31
0.0
  0
LINE
  5
1D9
100
AcDbEntity
  8
3
  6
DASHED
 62
         1
100
AcDbLine
 10
22.727852
 20
17.5320862613
 30
0.0
 11
22.727852
 21
17.8132862613
 31
0.0
  0
LINE
  5
1DA
100
AcDbEntity
  8
3
  6
DASHED
 62
         1
100
AcDbLine
 10
22.415352
 20
17.5320862613
 30
0.0
 11
22.727852
 21
17.5320862613
 31
0.0
  0
LINE
  5
1DB
100
AcDbEntity
  8
3
  6
DASHED
 62
         1
100
AcDbLine
 10
22.415352
 20
17.5320862613
 30
0.0
 11
22.415352
 21
18.0945862613
 31
0.0
  0
LINE
  5
1DC
100
AcDbEntity
  8
3
  6
DASHED
 62
         1
100
AcDbLine
 10
22.727852
 20
17.6257862613
 30
0.0
 11
23.562852
 21
17.6257862613
 31
0.0
  0
LINE
  5
1DD
100
AcDbEntity
  8
3
  6
DASHED
 62
         1
100
AcDbLine
 10
23.562852
 20
17.6257862613
 30
0.0
 11
23.562852
 21
18.0007862613
 31
0.0
  0
LINE
  5
1DE
100
AcDbEntity
  8
3
  6
DASHED
 62
         1
100
AcDbLine
 10
23.562852
 20
17.6257862613
 30
0.0
 11
23.602852
 21
17.6657862613
 31
0.0
  0
LINE
  5
1DF
100
AcDbEntity
  8
3
  6
DASHED
 62
         1
100
AcDbLine
 10
23.602852
 20
17.6657862613
 30
0.0
 11
23.602852
 21
17.9607862613
 31
0.0
  0
LINE
  5
1E0
100
AcDbEntity
  8
3
  6
DASHED
 62
         1
100
AcDbLine
 10
23.562852
 20
18.0007862613
 30
0.0
 11
23.602852
 21
17.9607862613
 31
0.0
  0
LINE
  5
1E1
100
AcDbEntity
  8
3
  6
DASHED
 62
         1
100
AcDbLine
 10
22.727852
 20
18.0007862613
 30
0.0
 11
23.562852
 21
18.0007862613
 31
0.0
  0
LINE
  5
1E2
100
AcDbEntity
  8
3
  6
CONTINUOUS
 62
         4
100
AcDbLine
 10
13.331422
 20
17.1257862613
 30
0.0
 11
14.081452
 21
17.1257862613
 31
0.0
  0
LINE
  5
1E3
100
AcDbEntity
  8
3
  6
CONTINUOUS
 62
         4
100
AcDbLine
 10
13.331422
 20
21.0007862613
 30
0.0
 11
14.081452
 21
21.0007862613
 31
0.0
  0
LINE
  5
1E4
100
AcDbEntity
  8
3
  6
CONTINUOUS
 62
         4
100
AcDbLine
 10
13.331422
 20
17.1257862613
 30
0.0
 11
13.331422
 21
21.0007862613
 31
0.0
  0
LINE
  5
1E5
100
AcDbEntity
  8
3
  6
CONTINUOUS
 62
         8
100
AcDbLine
 10
13.503422
 20
20.0711862613
 30
0.0
 11
13.565922
 21
20.0403862613
 31
0.0
  0
LINE
  5
1E6
100
AcDbEntity
  8
3
  6
CONTINUOUS
 62
         8
100
AcDbLine
 10
13.565922
 20
19.9628862613
 30
0.0
 11
13.565922
 21
20.0403862613
 31
0.0
  0
LINE
  5
1E7
100
AcDbEntity
  8
3
  6
CONTINUOUS
 62
         8
100
AcDbLine
 10
13.503422
 20
19.9267862613
 30
0.0
 11
13.565922
 21
19.9628862613
 31
0.0
  0
LINE
  5
1E8
100
AcDbEntity
  8
3
  6
CONTINUOUS
 62
         8
100
AcDbLine
 10
13.440922
 20
19.9628862613
 30
0.0
 11
13.503422
 21
19.9267862613
 31
0.0
  0
LINE
  5
1E9
100
AcDbEntity
  8
3
  6
CONTINUOUS
 62
         8
100
AcDbLine
 10
13.440922
 20
19.9628862613
 30
0.0
 11
13.440922
 21
20.0350862613
 31
0.0
  0
LINE
  5
1EA
100
AcDbEntity
  8
3
  6
CONTINUOUS
 62
         8
100
AcDbLine
 10
13.440922
 20
20.0350862613
 30
0.0
 11
13.503422
 21
20.0711862613
 31
0.0
  0
LINE
  5
1EB
100
AcDbEntity
  8
3
  6
CONTINUOUS
 62
         8
100
AcDbLine
 10
13.503422
 20
18.0536862613
 30
0.0
 11
13.565922
 21
18.0843862613
 31
0.0
  0
LINE
  5
1EC
100
AcDbEntity
  8
3
  6
CONTINUOUS
 62
         8
100
AcDbLine
 10
13.565922
 20
18.0843862613
 30
0.0
 11
13.565922
 21
18.1618862613
 31
0.0
  0
LINE
  5
1ED
100
AcDbEntity
  8
3
  6
CONTINUOUS
 62
         8
100
AcDbLine
 10
13.503422
 20
18.1979862613
 30
0.0
 11
13.565922
 21
18.1618862613
 31
0.0
  0
LINE
  5
1EE
100
AcDbEntity
  8
3
  6
CONTINUOUS
 62
         8
100
AcDbLine
 10
13.440922
 20
18.1618862613
 30
0.0
 11
13.503422
 21
18.1979862613
 31
0.0
  0
LINE
  5
1EF
100
AcDbEntity
  8
3
  6
CONTINUOUS
 62
         8
100
AcDbLine
 10
13.440922
 20
18.0896862613
 30
0.0
 11
13.440922
 21
18.1618862613
 31
0.0
  0
LINE
  5
1F0
100
AcDbEntity
  8
3
  6
CONTINUOUS
 62
         8
100
AcDbLine
 10
13.440922
 20
18.0896862613
 30
0.0
 11
13.503422
 21
18.0536862613
 31
0.0
  0
LINE
  5
1F1
100
AcDbEntity
  8
3
  6
CONTINUOUS
 62
         1
100
AcDbLine
 10
14.081452
 20
18.3540862613
 30
0.0
 11
14.121452
 21
18.3140862613
 31
0.0
  0
LINE
  5
1F2
100
AcDbEntity
  8
3
  6
CONTINUOUS
 62
         1
100
AcDbLine
 10
14.541452
 20
18.3140862613
 30
0.0
 11
14.581452
 21
18.3540862613
 31
0.0
  0
LINE
  5
1F3
100
AcDbEntity
  8
3
  6
CONTINUOUS
 62
         1
100
AcDbLine
 10
14.581452
 20
18.3540862613
 30
0.0
 11
14.581452
 21
19.7740862613
 31
0.0
  0
LINE
  5
1F4
100
AcDbEntity
  8
3
  6
CONTINUOUS
 62
         1
100
AcDbLine
 10
14.541452
 20
19.8140862613
 30
0.0
 11
14.581452
 21
19.7740862613
 31
0.0
  0
LINE
  5
1F5
100
AcDbEntity
  8
3
  6
CONTINUOUS
 62
         1
100
AcDbLine
 10
14.081452
 20
19.7740862613
 30
0.0
 11
14.121452
 21
19.8140862613
 31
0.0
  0
LINE
  5
1F6
100
AcDbEntity
  8
3
  6
CONTINUOUS
 62
         1
100
AcDbLine
 10
13.291422
 20
19.8125862613
 30
0.0
 11
13.331422
 21
19.7725862613
 31
0.0
  0
LINE
  5
1F7
100
AcDbEntity
  8
3
  6
CONTINUOUS
 62
         1
100
AcDbLine
 10
12.871422
 20
19.8125862613
 30
0.0
 11
13.291422
 21
19.8125862613
 31
0.0
  0
LINE
  5
1F8
100
AcDbEntity
  8
3
  6
CONTINUOUS
 62
         1
100
AcDbLine
 10
12.831422
 20
19.7725862613
 30
0.0
 11
12.871422
 21
19.8125862613
 31
0.0
  0
LINE
  5
1F9
100
AcDbEntity
  8
3
  6
CONTINUOUS
 62
         1
100
AcDbLine
 10
12.831422
 20
18.3525862613
 30
0.0
 11
12.831422
 21
19.7725862613
 31
0.0
  0
LINE
  5
1FA
100
AcDbEntity
  8
3
  6
CONTINUOUS
 62
         1
100
AcDbLine
 10
12.831422
 20
18.3525862613
 30
0.0
 11
12.871422
 21
18.3125862613
 31
0.0
  0
LINE
  5
1FB
100
AcDbEntity
  8
3
  6
CONTINUOUS
 62
         1
100
AcDbLine
 10
12.871422
 20
18.3125862613
 30
0.0
 11
13.291422
 21
18.3125862613
 31
0.0
  0
LINE
  5
1FC
100
AcDbEntity
  8
3
  6
CONTINUOUS
 62
         1
100
AcDbLine
 10
13.291422
 20
18.3125862613
 30
0.0
 11
13.331422
 21
18.3525862613
 31
0.0
  0
LINE
  5
1FD
100
AcDbEntity
  8
3
  6
CONTINUOUS
 62
         5
100
AcDbLine
 10
13.081422
 20
18.6527862613
 30
0.0
 11
13.159542
 21
18.6076862613
 31
0.0
  0
LINE
  5
1FE
100
AcDbEntity
  8
3
  6
CONTINUOUS
 62
         5
100
AcDbLine
 10
13.159542
 20
18.5174862613
 30
0.0
 11
13.159542
 21
18.6076862613
 31
0.0
  0
LINE
  5
1FF
100
AcDbEntity
  8
3
  6
CONTINUOUS
 62
         5
100
AcDbLine
 10
13.081422
 20
18.4723862613
 30
0.0
 11
13.159542
 21
18.5174862613
 31
0.0
  0
LINE
  5
200
100
AcDbEntity
  8
3
  6
CONTINUOUS
 62
         5
100
AcDbLine
 10
13.003292
 20
18.5174862613
 30
0.0
 11
13.081422
 21
18.4723862613
 31
0.0
  0
LINE
  5
201
100
AcDbEntity
  8
3
  6
CONTINUOUS
 62
         5
100
AcDbLine
 10
13.003292
 20
18.5174862613
 30
0.0
 11
13.003292
 21
18.6076862613
 31
0.0
  0
LINE
  5
202
100
AcDbEntity
  8
3
  6
CONTINUOUS
 62
         5
100
AcDbLine
 10
13.003292
 20
18.6076862613
 30
0.0
 11
13.081422
 21
18.6527862613
 31
0.0
  0
LINE
  5
203
100
AcDbEntity
  8
3
  6
CONTINUOUS
 62
         5
100
AcDbLine
 10
14.331452
 20
19.6534862613
 30
0.0
 11
14.409552
 21
19.6083862613
 31
0.0
  0
LINE
  5
204
100
AcDbEntity
  8
3
  6
CONTINUOUS
 62
         5
100
AcDbLine
 10
14.409552
 20
19.5181862613
 30
0.0
 11
14.409552
 21
19.6083862613
 31
0.0
  0
LINE
  5
205
100
AcDbEntity
  8
3
  6
CONTINUOUS
 62
         5
100
AcDbLine
 10
14.331452
 20
19.4730862613
 30
0.0
 11
14.409552
 21
19.5181862613
 31
0.0
  0
LINE
  5
206
100
AcDbEntity
  8
3
  6
CONTINUOUS
 62
         5
100
AcDbLine
 10
14.253252
 20
19.5181862613
 30
0.0
 11
14.331452
 21
19.4730862613
 31
0.0
  0
LINE
  5
207
100
AcDbEntity
  8
3
  6
CONTINUOUS
 62
         5
100
AcDbLine
 10
14.253252
 20
19.5181862613
 30
0.0
 11
14.253252
 21
19.6083862613
 31
0.0
  0
LINE
  5
208
100
AcDbEntity
  8
3
  6
CONTINUOUS
 62
         5
100
AcDbLine
 10
14.253252
 20
19.6083862613
 30
0.0
 11
14.331452
 21
19.6534862613
 31
0.0
  0
LINE
  5
209
100
AcDbEntity
  8
3
  6
CONTINUOUS
 62
         2
100
AcDbLine
 10
11.673502
 20
18.8855862613
 30
0.0
 11
11.706422
 21
18.9019862613
 31
0.0
  0
LINE
  5
20A
100
AcDbEntity
  8
3
  6
CONTINUOUS
 62
         2
100
AcDbLine
 10
11.658502
 20
18.8697862613
 30
0.0
 11
11.673502
 21
18.8855862613
 31
0.0
  0
LINE
  5
20B
100
AcDbEntity
  8
3
  6
CONTINUOUS
 62
         2
100
AcDbLine
 10
11.647822
 20
18.8490862613
 30
0.0
 11
11.658502
 21
18.8697862613
 31
0.0
  0
LINE
  5
20C
100
AcDbEntity
  8
3
  6
CONTINUOUS
 62
         2
100
AcDbLine
 10
11.643912
 20
18.8254862613
 30
0.0
 11
11.647822
 21
18.8490862613
 31
0.0
  0
LINE
  5
20D
100
AcDbEntity
  8
3
  6
CONTINUOUS
 62
         2
100
AcDbLine
 10
11.643912
 20
18.8254862613
 30
0.0
 11
11.647822
 21
18.8020862613
 31
0.0
  0
LINE
  5
20E
100
AcDbEntity
  8
3
  6
CONTINUOUS
 62
         2
100
AcDbLine
 10
11.647822
 20
18.8020862613
 30
0.0
 11
11.658502
 21
18.7817862613
 31
0.0
  0
LINE
  5
20F
100
AcDbEntity
  8
3
  6
CONTINUOUS
 62
         2
100
AcDbLine
 10
11.658502
 20
18.7817862613
 30
0.0
 11
11.673502
 21
18.7664862613
 31
0.0
  0
LINE
  5
210
100
AcDbEntity
  8
3
  6
CONTINUOUS
 62
         2
100
AcDbLine
 10
11.673502
 20
18.7664862613
 30
0.0
 11
11.690142
 21
18.7565862613
 31
0.0
  0
LINE
  5
211
100
AcDbEntity
  8
3
  6
CONTINUOUS
 62
         2
100
AcDbLine
 10
11.690142
 20
18.7565862613
 30
0.0
 11
11.706422
 21
18.7511862613
 31
0.0
  0
LINE
  5
212
100
AcDbEntity
  8
3
  6
CONTINUOUS
 62
         2
100
AcDbLine
 10
11.706422
 20
18.7511862613
 30
0.0
 11
12.696422
 21
18.7511862613
 31
0.0
  0
LINE
  5
213
100
AcDbEntity
  8
3
  6
CONTINUOUS
 62
         2
100
AcDbLine
 10
12.696422
 20
18.7511862613
 30
0.0
 11
12.732502
 21
18.6874862613
 31
0.0
  0
LINE
  5
214
100
AcDbEntity
  8
3
  6
CONTINUOUS
 62
         2
100
AcDbLine
 10
12.732502
 20
18.6874862613
 30
0.0
 11
12.831422
 21
18.6874862613
 31
0.0
  0
LINE
  5
215
100
AcDbEntity
  8
3
  6
CONTINUOUS
 62
         2
100
AcDbLine
 10
14.581452
 20
18.6874862613
 30
0.0
 11
14.680352
 21
18.6874862613
 31
0.0
  0
LINE
  5
216
100
AcDbEntity
  8
3
  6
CONTINUOUS
 62
         2
100
AcDbLine
 10
14.680352
 20
18.6874862613
 30
0.0
 11
14.716452
 21
18.7511862613
 31
0.0
  0
LINE
  5
217
100
AcDbEntity
  8
3
  6
CONTINUOUS
 62
         2
100
AcDbLine
 10
14.716452
 20
18.7511862613
 30
0.0
 11
16.267952
 21
18.7511862613
 31
0.0
  0
LINE
  5
218
100
AcDbEntity
  8
3
  6
CONTINUOUS
 62
         2
100
AcDbLine
 10
14.716452
 20
19.3761862613
 30
0.0
 11
16.267952
 21
19.3761862613
 31
0.0
  0
LINE
  5
219
100
AcDbEntity
  8
3
  6
CONTINUOUS
 62
         2
100
AcDbLine
 10
14.680352
 20
19.4374862613
 30
0.0
 11
14.716452
 21
19.3761862613
 31
0.0
  0
LINE
  5
21A
100
AcDbEntity
  8
3
  6
CONTINUOUS
 62
         2
100
AcDbLine
 10
14.581452
 20
19.4374862613
 30
0.0
 11
14.680352
 21
19.4374862613
 31
0.0
  0
LINE
  5
21B
100
AcDbEntity
  8
3
  6
CONTINUOUS
 62
         2
100
AcDbLine
 10
12.732502
 20
19.4374862613
 30
0.0
 11
12.831422
 21
19.4374862613
 31
0.0
  0
LINE
  5
21C
100
AcDbEntity
  8
3
  6
CONTINUOUS
 62
         2
100
AcDbLine
 10
12.696422
 20
19.3761862613
 30
0.0
 11
12.732502
 21
19.4374862613
 31
0.0
  0
LINE
  5
21D
100
AcDbEntity
  8
3
  6
CONTINUOUS
 62
         2
100
AcDbLine
 10
11.706422
 20
19.3761862613
 30
0.0
 11
12.696422
 21
19.3761862613
 31
0.0
  0
LINE
  5
21E
100
AcDbEntity
  8
3
  6
CONTINUOUS
 62
         2
100
AcDbLine
 10
11.673502
 20
19.3607862613
 30
0.0
 11
11.706422
 21
19.3761862613
 31
0.0
  0
LINE
  5
21F
100
AcDbEntity
  8
3
  6
CONTINUOUS
 62
         2
100
AcDbLine
 10
11.658502
 20
19.3455862613
 30
0.0
 11
11.673502
 21
19.3607862613
 31
0.0
  0
LINE
  5
220
100
AcDbEntity
  8
3
  6
CONTINUOUS
 62
         2
100
AcDbLine
 10
11.647822
 20
19.3252862613
 30
0.0
 11
11.658502
 21
19.3455862613
 31
0.0
  0
LINE
  5
221
100
AcDbEntity
  8
3
  6
CONTINUOUS
 62
         2
100
AcDbLine
 10
11.643922
 20
19.3018862613
 30
0.0
 11
11.647822
 21
19.3252862613
 31
0.0
  0
LINE
  5
222
100
AcDbEntity
  8
3
  6
CONTINUOUS
 62
         2
100
AcDbLine
 10
11.643922
 20
19.3018862613
 30
0.0
 11
11.647822
 21
19.2781862613
 31
0.0
  0
LINE
  5
223
100
AcDbEntity
  8
3
  6
CONTINUOUS
 62
         2
100
AcDbLine
 10
11.647822
 20
19.2781862613
 30
0.0
 11
11.658502
 21
19.2575862613
 31
0.0
  0
LINE
  5
224
100
AcDbEntity
  8
3
  6
CONTINUOUS
 62
         2
100
AcDbLine
 10
11.658502
 20
19.2575862613
 30
0.0
 11
11.673502
 21
19.2417862613
 31
0.0
  0
LINE
  5
225
100
AcDbEntity
  8
3
  6
CONTINUOUS
 62
         2
100
AcDbLine
 10
11.673502
 20
19.2417862613
 30
0.0
 11
11.690142
 21
19.2312862613
 31
0.0
  0
LINE
  5
226
100
AcDbEntity
  8
3
  6
CONTINUOUS
 62
         2
100
AcDbLine
 10
11.690142
 20
19.2312862613
 30
0.0
 11
11.706422
 21
19.2252862613
 31
0.0
  0
LINE
  5
227
100
AcDbEntity
  8
3
  6
CONTINUOUS
 62
         2
100
AcDbLine
 10
11.668462
 20
19.1694862613
 30
0.0
 11
11.706422
 21
19.2252862613
 31
0.0
  0
LINE
  5
228
100
AcDbEntity
  8
3
  6
CONTINUOUS
 62
         2
100
AcDbLine
 10
11.655142
 20
19.1362862613
 30
0.0
 11
11.668462
 21
19.1694862613
 31
0.0
  0
LINE
  5
229
100
AcDbEntity
  8
3
  6
CONTINUOUS
 62
         2
100
AcDbLine
 10
11.646772
 20
19.1005862613
 30
0.0
 11
11.655142
 21
19.1362862613
 31
0.0
  0
LINE
  5
22A
100
AcDbEntity
  8
3
  6
CONTINUOUS
 62
         2
100
AcDbLine
 10
11.643912
 20
19.0636862613
 30
0.0
 11
11.646772
 21
19.1005862613
 31
0.0
  0
LINE
  5
22B
100
AcDbEntity
  8
3
  6
CONTINUOUS
 62
         2
100
AcDbLine
 10
11.643912
 20
19.0636862613
 30
0.0
 11
11.646772
 21
19.0266862613
 31
0.0
  0
LINE
  5
22C
100
AcDbEntity
  8
3
  6
CONTINUOUS
 62
         2
100
AcDbLine
 10
11.646772
 20
19.0266862613
 30
0.0
 11
11.655142
 21
18.9910862613
 31
0.0
  0
LINE
  5
22D
100
AcDbEntity
  8
3
  6
CONTINUOUS
 62
         2
100
AcDbLine
 10
11.655142
 20
18.9910862613
 30
0.0
 11
11.668462
 21
18.9578862613
 31
0.0
  0
LINE
  5
22E
100
AcDbEntity
  8
3
  6
CONTINUOUS
 62
         2
100
AcDbLine
 10
11.668462
 20
18.9578862613
 30
0.0
 11
11.685882
 21
18.9279862613
 31
0.0
  0
LINE
  5
22F
100
AcDbEntity
  8
3
  6
CONTINUOUS
 62
         2
100
AcDbLine
 10
11.685882
 20
18.9279862613
 30
0.0
 11
11.706422
 21
18.9019862613
 31
0.0
  0
LINE
  5
230
100
AcDbEntity
  8
3
  6
CONTINUOUS
 62
       221
100
AcDbLine
 10
16.267952
 20
13.4040862613
 30
0.0
 11
16.267952
 21
13.5440862613
 31
0.0
  0
LINE
  5
231
100
AcDbEntity
  8
3
  6
CONTINUOUS
 62
       221
100
AcDbLine
 10
16.267952
 20
13.4040862613
 30
0.0
 11
16.767952
 21
13.4040862613
 31
0.0
  0
LINE
  5
232
100
AcDbEntity
  8
3
  6
CONTINUOUS
 62
       131
100
AcDbLine
 10
16.767952
 20
13.4040862613
 30
0.0
 11
16.767952
 21
14.5110862613
 31
0.0
  0
LINE
  5
233
100
AcDbEntity
  8
3
  6
CONTINUOUS
 62
       221
100
AcDbLine
 10
16.267952
 20
14.5110862613
 30
0.0
 11
16.767952
 21
14.5110862613
 31
0.0
  0
LINE
  5
234
100
AcDbEntity
  8
3
  6
CONTINUOUS
 62
       221
100
AcDbLine
 10
16.267952
 20
13.9500862613
 30
0.0
 11
16.267952
 21
14.5110862613
 31
0.0
  0
LINE
  5
235
100
AcDbEntity
  8
3
  6
CONTINUOUS
 62
       163
100
AcDbLine
 10
20.767952
 20
13.4040862613
 30
0.0
 11
20.767952
 21
14.6390862613
 31
0.0
  0
LINE
  5
236
100
AcDbEntity
  8
3
  6
CONTINUOUS
 62
       163
100
AcDbLine
 10
20.767952
 20
14.6390862613
 30
0.0
 11
21.314952
 21
14.6390862613
 31
0.0
  0
LINE
  5
237
100
AcDbEntity
  8
3
  6
CONTINUOUS
 62
       163
100
AcDbLine
 10
21.314952
 20
13.4040862613
 30
0.0
 11
21.314952
 21
14.6390862613
 31
0.0
  0
LINE
  5
238
100
AcDbEntity
  8
3
  6
DASHED
 62
         1
100
AcDbLine
 10
16.272952
 20
13.8723862613
 30
0.0
 11
16.335452
 21
13.8098862613
 31
0.0
  0
LINE
  5
239
100
AcDbEntity
  8
3
  6
DASHED
 62
         1
100
AcDbLine
 10
16.272952
 20
13.8723862613
 30
0.0
 11
16.272952
 21
14.3098862613
 31
0.0
  0
LINE
  5
23A
100
AcDbEntity
  8
3
  6
DASHED
 62
         1
100
AcDbLine
 10
16.272952
 20
14.3098862613
 30
0.0
 11
16.335452
 21
14.3723862613
 31
0.0
  0
LINE
  5
23B
100
AcDbEntity
  8
3
  6
DASHED
 62
         1
100
AcDbLine
 10
16.335452
 20
14.3723862613
 30
0.0
 11
16.647952
 21
14.3723862613
 31
0.0
  0
LINE
  5
23C
100
AcDbEntity
  8
3
  6
DASHED
 62
         1
100
AcDbLine
 10
16.647952
 20
14.0910862613
 30
0.0
 11
16.647952
 21
14.3723862613
 31
0.0
  0
LINE
  5
23D
100
AcDbEntity
  8
3
  6
DASHED
 62
         1
100
AcDbLine
 10
16.647952
 20
13.8098862613
 30
0.0
 11
16.647952
 21
14.0910862613
 31
0.0
  0
LINE
  5
23E
100
AcDbEntity
  8
3
  6
DASHED
 62
         1
100
AcDbLine
 10
16.335452
 20
13.8098862613
 30
0.0
 11
16.647952
 21
13.8098862613
 31
0.0
  0
LINE
  5
23F
100
AcDbEntity
  8
3
  6
DASHED
 62
         1
100
AcDbLine
 10
16.335452
 20
13.8098862613
 30
0.0
 11
16.335452
 21
14.3723862613
 31
0.0
  0
LINE
  5
240
100
AcDbEntity
  8
3
  6
DASHED
 62
         1
100
AcDbLine
 10
16.647952
 20
13.9035862613
 30
0.0
 11
17.107952
 21
13.9035862613
 31
0.0
  0
LINE
  5
241
100
AcDbEntity
  8
3
  6
DASHED
 62
         1
100
AcDbLine
 10
17.107952
 20
13.9035862613
 30
0.0
 11
17.107952
 21
14.2785862613
 31
0.0
  0
LINE
  5
242
100
AcDbEntity
  8
3
  6
DASHED
 62
         1
100
AcDbLine
 10
17.107952
 20
13.9035862613
 30
0.0
 11
17.147952
 21
13.9435862613
 31
0.0
  0
LINE
  5
243
100
AcDbEntity
  8
3
  6
DASHED
 62
         1
100
AcDbLine
 10
17.147952
 20
13.9435862613
 30
0.0
 11
17.147952
 21
14.2385862613
 31
0.0
  0
LINE
  5
244
100
AcDbEntity
  8
3
  6
DASHED
 62
         1
100
AcDbLine
 10
17.107952
 20
14.2785862613
 30
0.0
 11
17.147952
 21
14.2385862613
 31
0.0
  0
LINE
  5
245
100
AcDbEntity
  8
3
  6
DASHED
 62
         1
100
AcDbLine
 10
16.647952
 20
14.2785862613
 30
0.0
 11
17.107952
 21
14.2785862613
 31
0.0
  0
LINE
  5
246
100
AcDbEntity
  8
3
  6
CONTINUOUS
 62
       131
100
AcDbLine
 10
16.767952
 20
14.5110862613
 30
0.0
 11
16.767952
 21
14.5190862613
 31
0.0
  0
LINE
  5
247
100
AcDbEntity
  8
3
  6
CONTINUOUS
 62
       131
100
AcDbLine
 10
16.767952
 20
14.5190862613
 30
0.0
 11
20.767952
 21
14.5190862613
 31
0.0
  0
LINE
  5
248
100
AcDbEntity
  8
3
  6
CONTINUOUS
 62
       131
100
AcDbLine
 10
18.017952
 20
14.3315862613
 30
0.0
 11
18.017952
 21
14.5190862613
 31
0.0
  0
LINE
  5
249
100
AcDbEntity
  8
3
  6
CONTINUOUS
 62
       131
100
AcDbLine
 10
17.767952
 20
14.3315862613
 30
0.0
 11
18.017952
 21
14.3315862613
 31
0.0
  0
LINE
  5
24A
100
AcDbEntity
  8
3
  6
CONTINUOUS
 62
       131
100
AcDbLine
 10
17.767952
 20
14.3315862613
 30
0.0
 11
17.767952
 21
14.5190862613
 31
0.0
  0
LINE
  5
24B
100
AcDbEntity
  8
3
  6
DASHED
 62
         1
100
AcDbLine
 10
21.247452
 20
13.8098862613
 30
0.0
 11
21.309952
 21
13.8723862613
 31
0.0
  0
LINE
  5
24C
100
AcDbEntity
  8
3
  6
DASHED
 62
         1
100
AcDbLine
 10
21.309952
 20
13.8723862613
 30
0.0
 11
21.309952
 21
14.3098862613
 31
0.0
  0
LINE
  5
24D
100
AcDbEntity
  8
3
  6
DASHED
 62
         1
100
AcDbLine
 10
21.247452
 20
14.3723862613
 30
0.0
 11
21.309952
 21
14.3098862613
 31
0.0
  0
LINE
  5
24E
100
AcDbEntity
  8
3
  6
DASHED
 62
         1
100
AcDbLine
 10
20.934952
 20
14.3723862613
 30
0.0
 11
21.247452
 21
14.3723862613
 31
0.0
  0
LINE
  5
24F
100
AcDbEntity
  8
3
  6
DASHED
 62
         1
100
AcDbLine
 10
20.934952
 20
14.0910862613
 30
0.0
 11
20.934952
 21
14.3723862613
 31
0.0
  0
LINE
  5
250
100
AcDbEntity
  8
3
  6
DASHED
 62
         1
100
AcDbLine
 10
20.934952
 20
13.8098862613
 30
0.0
 11
20.934952
 21
14.0910862613
 31
0.0
  0
LINE
  5
251
100
AcDbEntity
  8
3
  6
DASHED
 62
         1
100
AcDbLine
 10
20.934952
 20
13.8098862613
 30
0.0
 11
21.247452
 21
13.8098862613
 31
0.0
  0
LINE
  5
252
100
AcDbEntity
  8
3
  6
DASHED
 62
         1
100
AcDbLine
 10
21.247452
 20
13.8098862613
 30
0.0
 11
21.247452
 21
14.3723862613
 31
0.0
  0
LINE
  5
253
100
AcDbEntity
  8
3
  6
DASHED
 62
         1
100
AcDbLine
 10
20.099952
 20
13.9035862613
 30
0.0
 11
20.934952
 21
13.9035862613
 31
0.0
  0
LINE
  5
254
100
AcDbEntity
  8
3
  6
DASHED
 62
         1
100
AcDbLine
 10
20.099952
 20
13.9035862613
 30
0.0
 11
20.099952
 21
14.2785862613
 31
0.0
  0
LINE
  5
255
100
AcDbEntity
  8
3
  6
DASHED
 62
         1
100
AcDbLine
 10
20.059952
 20
13.9435862613
 30
0.0
 11
20.099952
 21
13.9035862613
 31
0.0
  0
LINE
  5
256
100
AcDbEntity
  8
3
  6
DASHED
 62
         1
100
AcDbLine
 10
20.059952
 20
13.9435862613
 30
0.0
 11
20.059952
 21
14.2385862613
 31
0.0
  0
LINE
  5
257
100
AcDbEntity
  8
3
  6
DASHED
 62
         1
100
AcDbLine
 10
20.059952
 20
14.2385862613
 30
0.0
 11
20.099952
 21
14.2785862613
 31
0.0
  0
LINE
  5
258
100
AcDbEntity
  8
3
  6
DASHED
 62
         1
100
AcDbLine
 10
20.099952
 20
14.2785862613
 30
0.0
 11
20.934952
 21
14.2785862613
 31
0.0
  0
LINE
  5
259
100
AcDbEntity
  8
3
  6
CONTINUOUS
 62
       163
100
AcDbLine
 10
22.347852
 20
13.4040862613
 30
0.0
 11
22.347852
 21
14.6390862613
 31
0.0
  0
LINE
  5
25A
100
AcDbEntity
  8
3
  6
CONTINUOUS
 62
       163
100
AcDbLine
 10
22.347852
 20
14.6390862613
 30
0.0
 11
22.894852
 21
14.6390862613
 31
0.0
  0
LINE
  5
25B
100
AcDbEntity
  8
3
  6
CONTINUOUS
 62
       163
100
AcDbLine
 10
22.894852
 20
13.4040862613
 30
0.0
 11
22.894852
 21
14.6390862613
 31
0.0
  0
LINE
  5
25C
100
AcDbEntity
  8
3
  6
DASHED
 62
         1
100
AcDbLine
 10
22.352852
 20
13.8723862613
 30
0.0
 11
22.415352
 21
13.8098862613
 31
0.0
  0
LINE
  5
25D
100
AcDbEntity
  8
3
  6
DASHED
 62
         1
100
AcDbLine
 10
22.352852
 20
13.8723862613
 30
0.0
 11
22.352852
 21
14.3098862613
 31
0.0
  0
LINE
  5
25E
100
AcDbEntity
  8
3
  6
DASHED
 62
         1
100
AcDbLine
 10
22.352852
 20
14.3098862613
 30
0.0
 11
22.415352
 21
14.3723862613
 31
0.0
  0
LINE
  5
25F
100
AcDbEntity
  8
3
  6
DASHED
 62
         1
100
AcDbLine
 10
22.415352
 20
14.3723862613
 30
0.0
 11
22.727852
 21
14.3723862613
 31
0.0
  0
LINE
  5
260
100
AcDbEntity
  8
3
  6
DASHED
 62
         1
100
AcDbLine
 10
22.727852
 20
14.0910862613
 30
0.0
 11
22.727852
 21
14.3723862613
 31
0.0
  0
LINE
  5
261
100
AcDbEntity
  8
3
  6
DASHED
 62
         1
100
AcDbLine
 10
22.727852
 20
13.8098862613
 30
0.0
 11
22.727852
 21
14.0910862613
 31
0.0
  0
LINE
  5
262
100
AcDbEntity
  8
3
  6
DASHED
 62
         1
100
AcDbLine
 10
22.415352
 20
13.8098862613
 30
0.0
 11
22.727852
 21
13.8098862613
 31
0.0
  0
LINE
  5
263
100
AcDbEntity
  8
3
  6
DASHED
 62
         1
100
AcDbLine
 10
22.415352
 20
13.8098862613
 30
0.0
 11
22.415352
 21
14.3723862613
 31
0.0
  0
LINE
  5
264
100
AcDbEntity
  8
3
  6
DASHED
 62
         1
100
AcDbLine
 10
22.727852
 20
13.9035862613
 30
0.0
 11
23.562852
 21
13.9035862613
 31
0.0
  0
LINE
  5
265
100
AcDbEntity
  8
3
  6
DASHED
 62
         1
100
AcDbLine
 10
23.562852
 20
13.9035862613
 30
0.0
 11
23.562852
 21
14.2785862613
 31
0.0
  0
LINE
  5
266
100
AcDbEntity
  8
3
  6
DASHED
 62
         1
100
AcDbLine
 10
23.562852
 20
13.9035862613
 30
0.0
 11
23.602852
 21
13.9435862613
 31
0.0
  0
LINE
  5
267
100
AcDbEntity
  8
3
  6
DASHED
 62
         1
100
AcDbLine
 10
23.602852
 20
13.9435862613
 30
0.0
 11
23.602852
 21
14.2385862613
 31
0.0
  0
LINE
  5
268
100
AcDbEntity
  8
3
  6
DASHED
 62
         1
100
AcDbLine
 10
23.562852
 20
14.2785862613
 30
0.0
 11
23.602852
 21
14.2385862613
 31
0.0
  0
LINE
  5
269
100
AcDbEntity
  8
3
  6
DASHED
 62
         1
100
AcDbLine
 10
22.727852
 20
14.2785862613
 30
0.0
 11
23.562852
 21
14.2785862613
 31
0.0
  0
LINE
  5
26A
100
AcDbEntity
  8
3
  6
CONTINUOUS
 62
       131
100
AcDbLine
 10
26.894852
 20
13.4040862613
 30
0.0
 11
26.894852
 21
14.5190862613
 31
0.0
  0
LINE
  5
26B
100
AcDbEntity
  8
3
  6
CONTINUOUS
 62
       131
100
AcDbLine
 10
22.894852
 20
14.5190862613
 30
0.0
 11
26.894852
 21
14.5190862613
 31
0.0
  0
LINE
  5
26C
100
AcDbEntity
  8
3
  6
CONTINUOUS
 62
       131
100
AcDbLine
 10
25.644852
 20
14.3315862613
 30
0.0
 11
25.644852
 21
14.5190862613
 31
0.0
  0
LINE
  5
26D
100
AcDbEntity
  8
3
  6
CONTINUOUS
 62
       131
100
AcDbLine
 10
25.644852
 20
14.3315862613
 30
0.0
 11
25.894852
 21
14.3315862613
 31
0.0
  0
LINE
  5
26E
100
AcDbEntity
  8
3
  6
CONTINUOUS
 62
       131
100
AcDbLine
 10
25.894852
 20
14.3315862613
 30
0.0
 11
25.894852
 21
14.5190862613
 31
0.0
  0
LINE
  5
26F
100
AcDbEntity
  8
3
  6
CONTINUOUS
 62
         2
100
AcDbLine
 10
11.673502
 20
12.3549862613
 30
0.0
 11
11.706422
 21
12.3714862613
 31
0.0
  0
LINE
  5
270
100
AcDbEntity
  8
3
  6
CONTINUOUS
 62
         2
100
AcDbLine
 10
11.658502
 20
12.3391862613
 30
0.0
 11
11.673502
 21
12.3549862613
 31
0.0
  0
LINE
  5
271
100
AcDbEntity
  8
3
  6
CONTINUOUS
 62
         2
100
AcDbLine
 10
11.647822
 20
12.3185862613
 30
0.0
 11
11.658502
 21
12.3391862613
 31
0.0
  0
LINE
  5
272
100
AcDbEntity
  8
3
  6
CONTINUOUS
 62
         2
100
AcDbLine
 10
11.643922
 20
12.2949862613
 30
0.0
 11
11.647822
 21
12.3185862613
 31
0.0
  0
LINE
  5
273
100
AcDbEntity
  8
3
  6
CONTINUOUS
 62
         2
100
AcDbLine
 10
11.643922
 20
12.2949862613
 30
0.0
 11
11.647822
 21
12.2714762613
 31
0.0
  0
LINE
  5
274
100
AcDbEntity
  8
3
  6
CONTINUOUS
 62
         2
100
AcDbLine
 10
11.647822
 20
12.2714762613
 30
0.0
 11
11.658502
 21
12.2512062613
 31
0.0
  0
LINE
  5
275
100
AcDbEntity
  8
3
  6
CONTINUOUS
 62
         2
100
AcDbLine
 10
11.658502
 20
12.2512062613
 30
0.0
 11
11.673502
 21
12.2359562613
 31
0.0
  0
LINE
  5
276
100
AcDbEntity
  8
3
  6
CONTINUOUS
 62
         2
100
AcDbLine
 10
11.673502
 20
12.2359562613
 30
0.0
 11
11.690152
 21
12.2260162613
 31
0.0
  0
LINE
  5
277
100
AcDbEntity
  8
3
  6
CONTINUOUS
 62
         2
100
AcDbLine
 10
11.690152
 20
12.2260162613
 30
0.0
 11
11.706422
 21
12.2206162613
 31
0.0
  0
LINE
  5
278
100
AcDbEntity
  8
3
  6
CONTINUOUS
 62
         2
100
AcDbLine
 10
11.706422
 20
12.2206162613
 30
0.0
 11
12.696422
 21
12.2206162613
 31
0.0
  0
LINE
  5
279
100
AcDbEntity
  8
3
  6
CONTINUOUS
 62
         2
100
AcDbLine
 10
12.696422
 20
12.2206162613
 30
0.0
 11
12.732502
 21
12.1581162613
 31
0.0
  0
LINE
  5
27A
100
AcDbEntity
  8
3
  6
CONTINUOUS
 62
         2
100
AcDbLine
 10
12.732502
 20
12.1581162613
 30
0.0
 11
12.821422
 21
12.1581162613
 31
0.0
  0
LINE
  5
27B
100
AcDbEntity
  8
3
  6
CONTINUOUS
 62
         2
100
AcDbLine
 10
12.732502
 20
12.9080862613
 30
0.0
 11
12.821422
 21
12.9080862613
 31
0.0
  0
LINE
  5
27C
100
AcDbEntity
  8
3
  6
CONTINUOUS
 62
         2
100
AcDbLine
 10
12.696422
 20
12.8455862613
 30
0.0
 11
12.732502
 21
12.9080862613
 31
0.0
  0
LINE
  5
27D
100
AcDbEntity
  8
3
  6
CONTINUOUS
 62
         2
100
AcDbLine
 10
11.706422
 20
12.8455862613
 30
0.0
 11
12.696422
 21
12.8455862613
 31
0.0
  0
LINE
  5
27E
100
AcDbEntity
  8
3
  6
CONTINUOUS
 62
         2
100
AcDbLine
 10
11.673502
 20
12.8302862613
 30
0.0
 11
11.706422
 21
12.8455862613
 31
0.0
  0
LINE
  5
27F
100
AcDbEntity
  8
3
  6
CONTINUOUS
 62
         2
100
AcDbLine
 10
11.658502
 20
12.8149862613
 30
0.0
 11
11.673502
 21
12.8302862613
 31
0.0
  0
LINE
  5
280
100
AcDbEntity
  8
3
  6
CONTINUOUS
 62
         2
100
AcDbLine
 10
11.647822
 20
12.7947862613
 30
0.0
 11
11.658502
 21
12.8149862613
 31
0.0
  0
LINE
  5
281
100
AcDbEntity
  8
3
  6
CONTINUOUS
 62
         2
100
AcDbLine
 10
11.643922
 20
12.7712862613
 30
0.0
 11
11.647822
 21
12.7947862613
 31
0.0
  0
LINE
  5
282
100
AcDbEntity
  8
3
  6
CONTINUOUS
 62
         2
100
AcDbLine
 10
11.643922
 20
12.7712862613
 30
0.0
 11
11.647822
 21
12.7476862613
 31
0.0
  0
LINE
  5
283
100
AcDbEntity
  8
3
  6
CONTINUOUS
 62
         2
100
AcDbLine
 10
11.647822
 20
12.7476862613
 30
0.0
 11
11.658502
 21
12.7269862613
 31
0.0
  0
LINE
  5
284
100
AcDbEntity
  8
3
  6
CONTINUOUS
 62
         2
100
AcDbLine
 10
11.658502
 20
12.7269862613
 30
0.0
 11
11.673502
 21
12.7112862613
 31
0.0
  0
LINE
  5
285
100
AcDbEntity
  8
3
  6
CONTINUOUS
 62
         2
100
AcDbLine
 10
11.673502
 20
12.7112862613
 30
0.0
 11
11.690152
 21
12.7007862613
 31
0.0
  0
LINE
  5
286
100
AcDbEntity
  8
3
  6
CONTINUOUS
 62
         2
100
AcDbLine
 10
11.690152
 20
12.7007862613
 30
0.0
 11
11.706422
 21
12.6947862613
 31
0.0
  0
LINE
  5
287
100
AcDbEntity
  8
3
  6
CONTINUOUS
 62
         2
100
AcDbLine
 10
11.668462
 20
12.6388862613
 30
0.0
 11
11.706422
 21
12.6947862613
 31
0.0
  0
LINE
  5
288
100
AcDbEntity
  8
3
  6
CONTINUOUS
 62
         2
100
AcDbLine
 10
11.655142
 20
12.6056862613
 30
0.0
 11
11.668462
 21
12.6388862613
 31
0.0
  0
LINE
  5
289
100
AcDbEntity
  8
3
  6
CONTINUOUS
 62
         2
100
AcDbLine
 10
11.646772
 20
12.5700862613
 30
0.0
 11
11.655142
 21
12.6056862613
 31
0.0
  0
LINE
  5
28A
100
AcDbEntity
  8
3
  6
CONTINUOUS
 62
         2
100
AcDbLine
 10
11.643922
 20
12.5330862613
 30
0.0
 11
11.646772
 21
12.5700862613
 31
0.0
  0
LINE
  5
28B
100
AcDbEntity
  8
3
  6
CONTINUOUS
 62
         2
100
AcDbLine
 10
11.643922
 20
12.5330862613
 30
0.0
 11
11.646772
 21
12.4961862613
 31
0.0
  0
LINE
  5
28C
100
AcDbEntity
  8
3
  6
CONTINUOUS
 62
         2
100
AcDbLine
 10
11.646772
 20
12.4961862613
 30
0.0
 11
11.655142
 21
12.4604862613
 31
0.0
  0
LINE
  5
28D
100
AcDbEntity
  8
3
  6
CONTINUOUS
 62
         2
100
AcDbLine
 10
11.655142
 20
12.4604862613
 30
0.0
 11
11.668462
 21
12.4272862613
 31
0.0
  0
LINE
  5
28E
100
AcDbEntity
  8
3
  6
CONTINUOUS
 62
         2
100
AcDbLine
 10
11.668462
 20
12.4272862613
 30
0.0
 11
11.685882
 21
12.3974862613
 31
0.0
  0
LINE
  5
28F
100
AcDbEntity
  8
3
  6
CONTINUOUS
 62
         2
100
AcDbLine
 10
11.685882
 20
12.3974862613
 30
0.0
 11
11.706422
 21
12.3714862613
 31
0.0
  0
LINE
  5
290
100
AcDbEntity
  8
3
  6
CONTINUOUS
 62
         4
100
AcDbLine
 10
13.331422
 20
11.1291262613
 30
0.0
 11
13.331422
 21
11.5666262613
 31
0.0
  0
LINE
  5
291
100
AcDbEntity
  8
3
  6
CONTINUOUS
 62
         4
100
AcDbLine
 10
13.331422
 20
11.1291262613
 30
0.0
 11
14.081452
 21
11.1291262613
 31
0.0
  0
LINE
  5
292
100
AcDbEntity
  8
3
  6
CONTINUOUS
 62
         4
100
AcDbLine
 10
13.331422
 20
13.3790862613
 30
0.0
 11
14.081452
 21
13.3790862613
 31
0.0
  0
LINE
  5
293
100
AcDbEntity
  8
3
  6
CONTINUOUS
 62
         4
100
AcDbLine
 10
13.331422
 20
11.5666262613
 30
0.0
 11
13.331422
 21
13.3790862613
 31
0.0
  0
LINE
  5
294
100
AcDbEntity
  8
3
  6
CONTINUOUS
 62
         6
100
AcDbLine
 10
13.322922
 20
13.4040862613
 30
0.0
 11
13.683952
 21
13.4040862613
 31
0.0
  0
LINE
  5
295
100
AcDbEntity
  8
3
  6
CONTINUOUS
 62
         6
100
AcDbLine
 10
13.683952
 20
13.4040862613
 30
0.0
 11
13.683952
 21
13.4240862613
 31
0.0
  0
LINE
  5
296
100
AcDbEntity
  8
3
  6
CONTINUOUS
 62
         6
100
AcDbLine
 10
13.322922
 20
13.4040862613
 30
0.0
 11
13.322922
 21
13.4240862613
 31
0.0
  0
LINE
  5
297
100
AcDbEntity
  8
3
  6
CONTINUOUS
 62
         1
100
AcDbLine
 10
13.321422
 20
11.9131262613
 30
0.0
 11
13.321422
 21
12.1521162613
 31
0.0
  0
LINE
  5
298
100
AcDbEntity
  8
3
  6
CONTINUOUS
 62
         1
100
AcDbLine
 10
13.321422
 20
12.9140862613
 30
0.0
 11
13.321422
 21
13.1530862613
 31
0.0
  0
LINE
  5
299
100
AcDbEntity
  8
3
  6
CONTINUOUS
 62
         1
100
AcDbLine
 10
12.861422
 20
11.7831162613
 30
0.0
 11
12.861422
 21
12.5018862613
 31
0.0
  0
LINE
  5
29A
100
AcDbEntity
  8
3
  6
CONTINUOUS
 62
         1
100
AcDbLine
 10
12.861422
 20
12.5643862613
 30
0.0
 11
12.861422
 21
13.2830862613
 31
0.0
  0
LINE
  5
29B
100
AcDbEntity
  8
3
  6
CONTINUOUS
 62
         1
100
AcDbLine
 10
13.281422
 20
11.7831162613
 30
0.0
 11
13.281422
 21
12.5018862613
 31
0.0
  0
LINE
  5
29C
100
AcDbEntity
  8
3
  6
CONTINUOUS
 62
         1
100
AcDbLine
 10
13.281422
 20
12.5643862613
 30
0.0
 11
13.281422
 21
13.2830862613
 31
0.0
  0
LINE
  5
29D
100
AcDbEntity
  8
3
  6
CONTINUOUS
 62
         1
100
AcDbLine
 10
12.821422
 20
11.8231162613
 30
0.0
 11
12.821422
 21
12.5018862613
 31
0.0
  0
LINE
  5
29E
100
AcDbEntity
  8
3
  6
CONTINUOUS
 62
         1
100
AcDbLine
 10
12.821422
 20
12.5643862613
 30
0.0
 11
12.821422
 21
13.2430862613
 31
0.0
  0
LINE
  5
29F
100
AcDbEntity
  8
3
  6
CONTINUOUS
 62
         1
100
AcDbLine
 10
12.821422
 20
13.2430862613
 30
0.0
 11
12.861422
 21
13.2830862613
 31
0.0
  0
LINE
  5
2A0
100
AcDbEntity
  8
3
  6
CONTINUOUS
 62
         1
100
AcDbLine
 10
12.861422
 20
13.2830862613
 30
0.0
 11
13.281422
 21
13.2830862613
 31
0.0
  0
LINE
  5
2A1
100
AcDbEntity
  8
3
  6
CONTINUOUS
 62
         1
100
AcDbLine
 10
13.281422
 20
13.2830862613
 30
0.0
 11
13.321422
 21
13.2430862613
 31
0.0
  0
LINE
  5
2A2
100
AcDbEntity
  8
3
  6
CONTINUOUS
 62
         1
100
AcDbLine
 10
13.321422
 20
13.1530862613
 30
0.0
 11
13.321422
 21
13.2430862613
 31
0.0
  0
LINE
  5
2A3
100
AcDbEntity
  8
3
  6
CONTINUOUS
 62
         1
100
AcDbLine
 10
13.321422
 20
12.5643862613
 30
0.0
 11
13.321422
 21
12.9140862613
 31
0.0
  0
LINE
  5
2A4
100
AcDbEntity
  8
3
  6
CONTINUOUS
 62
         1
100
AcDbLine
 10
13.321422
 20
12.1521162613
 30
0.0
 11
13.321422
 21
12.5018862613
 31
0.0
  0
LINE
  5
2A5
100
AcDbEntity
  8
3
  6
CONTINUOUS
 62
         1
100
AcDbLine
 10
13.321422
 20
11.8231162613
 30
0.0
 11
13.321422
 21
11.9131262613
 31
0.0
  0
LINE
  5
2A6
100
AcDbEntity
  8
3
  6
CONTINUOUS
 62
         1
100
AcDbLine
 10
13.281422
 20
11.7831162613
 30
0.0
 11
13.321422
 21
11.8231162613
 31
0.0
  0
LINE
  5
2A7
100
AcDbEntity
  8
3
  6
CONTINUOUS
 62
         1
100
AcDbLine
 10
12.861422
 20
11.7831162613
 30
0.0
 11
13.281422
 21
11.7831162613
 31
0.0
  0
LINE
  5
2A8
100
AcDbEntity
  8
3
  6
CONTINUOUS
 62
         1
100
AcDbLine
 10
12.821422
 20
11.8231162613
 30
0.0
 11
12.861422
 21
11.7831162613
 31
0.0
  0
LINE
  5
2A9
100
AcDbEntity
  8
3
  6
CONTINUOUS
 62
         1
100
AcDbLine
 10
12.868422
 20
12.7830862613
 30
0.0
 11
12.868422
 21
13.0622862613
 31
0.0
  0
LINE
  5
2AA
100
AcDbEntity
  8
3
  6
CONTINUOUS
 62
         1
100
AcDbLine
 10
12.868422
 20
12.7830862613
 30
0.0
 11
13.274422
 21
12.7830862613
 31
0.0
  0
LINE
  5
2AB
100
AcDbEntity
  8
3
  6
CONTINUOUS
 62
         1
100
AcDbLine
 10
13.274422
 20
12.7830862613
 30
0.0
 11
13.274422
 21
13.0622862613
 31
0.0
  0
LINE
  5
2AC
100
AcDbEntity
  8
3
  6
CONTINUOUS
 62
         4
100
AcDbLine
 10
6.627292
 20
13.3790862613
 30
0.0
 11
6.692282
 21
13.3790862613
 31
0.0
  0
LINE
  5
2AD
100
AcDbEntity
  8
3
  6
CONTINUOUS
 62
         4
100
AcDbLine
 10
5.062302
 20
13.3790862613
 30
0.0
 11
5.127292
 21
13.3790862613
 31
0.0
  0
LINE
  5
2AE
100
AcDbEntity
  8
3
  6
CONTINUOUS
 62
        15
100
AcDbLine
 10
6.692282
 20
13.3790862613
 30
0.0
 11
6.692282
 21
13.4040862613
 31
0.0
  0
LINE
  5
2AF
100
AcDbEntity
  8
3
  6
CONTINUOUS
 62
        15
100
AcDbLine
 10
6.692282
 20
13.4040862613
 30
0.0
 11
7.002302
 21
13.4040862613
 31
0.0
  0
LINE
  5
2B0
100
AcDbEntity
  8
3
  6
CONTINUOUS
 62
        15
100
AcDbLine
 10
7.002302
 20
13.4040862613
 30
0.0
 11
7.877302
 21
13.4040862613
 31
0.0
  0
LINE
  5
2B1
100
AcDbEntity
  8
3
  6
CONTINUOUS
 62
        15
100
AcDbLine
 10
7.877302
 20
12.4781262613
 30
0.0
 11
7.877302
 21
13.4040862613
 31
0.0
  0
LINE
  5
2B2
100
AcDbEntity
  8
3
  6
CONTINUOUS
 62
        15
100
AcDbLine
 10
7.877292
 20
11.0291362613
 30
0.0
 11
7.877292
 21
11.6701562613
 31
0.0
  0
LINE
  5
2B3
100
AcDbEntity
  8
3
  6
CONTINUOUS
 62
        15
100
AcDbLine
 10
3.877312
 20
11.0291362613
 30
0.0
 11
7.877292
 21
11.0291362613
 31
0.0
  0
LINE
  5
2B4
100
AcDbEntity
  8
3
  6
CONTINUOUS
 62
        15
100
AcDbLine
 10
3.877312
 20
11.0291362613
 30
0.0
 11
3.877312
 21
11.6701362613
 31
0.0
  0
LINE
  5
2B5
100
AcDbEntity
  8
3
  6
CONTINUOUS
 62
        15
100
AcDbLine
 10
3.877322
 20
12.4781262613
 30
0.0
 11
3.877322
 21
13.4040862613
 31
0.0
  0
LINE
  5
2B6
100
AcDbEntity
  8
3
  6
CONTINUOUS
 62
        15
100
AcDbLine
 10
3.877322
 20
13.4040862613
 30
0.0
 11
4.752302
 21
13.4040862613
 31
0.0
  0
LINE
  5
2B7
100
AcDbEntity
  8
3
  6
CONTINUOUS
 62
        15
100
AcDbLine
 10
4.752302
 20
13.4040862613
 30
0.0
 11
5.062302
 21
13.4040862613
 31
0.0
  0
LINE
  5
2B8
100
AcDbEntity
  8
3
  6
CONTINUOUS
 62
        15
100
AcDbLine
 10
5.062302
 20
13.3790862613
 30
0.0
 11
5.062302
 21
13.4040862613
 31
0.0
  0
LINE
  5
2B9
100
AcDbEntity
  8
3
  6
CONTINUOUS
 62
         1
100
AcDbLine
 10
6.897302
 20
14.0910862613
 30
0.0
 11
6.907452
 21
14.0235862613
 31
0.0
  0
LINE
  5
2BA
100
AcDbEntity
  8
3
  6
CONTINUOUS
 62
         1
100
AcDbLine
 10
6.907452
 20
14.0235862613
 30
0.0
 11
6.920902
 21
13.9895862613
 31
0.0
  0
LINE
  5
2BB
100
AcDbEntity
  8
3
  6
CONTINUOUS
 62
         1
100
AcDbLine
 10
6.920902
 20
13.9895862613
 30
0.0
 11
6.940122
 21
13.9574862613
 31
0.0
  0
LINE
  5
2BC
100
AcDbEntity
  8
3
  6
CONTINUOUS
 62
         1
100
AcDbLine
 10
6.940122
 20
13.9574862613
 30
0.0
 11
6.964672
 21
13.9284862613
 31
0.0
  0
LINE
  5
2BD
100
AcDbEntity
  8
3
  6
CONTINUOUS
 62
         1
100
AcDbLine
 10
6.964672
 20
13.9284862613
 30
0.0
 11
6.993652
 21
13.9038862613
 31
0.0
  0
LINE
  5
2BE
100
AcDbEntity
  8
3
  6
CONTINUOUS
 62
         1
100
AcDbLine
 10
6.993652
 20
13.9038862613
 30
0.0
 11
7.025812
 21
13.8846862613
 31
0.0
  0
LINE
  5
2BF
100
AcDbEntity
  8
3
  6
CONTINUOUS
 62
         1
100
AcDbLine
 10
7.025812
 20
13.8846862613
 30
0.0
 11
7.059732
 21
13.8712862613
 31
0.0
  0
LINE
  5
2C0
100
AcDbEntity
  8
3
  6
CONTINUOUS
 62
         1
100
AcDbLine
 10
7.059732
 20
13.8712862613
 30
0.0
 11
7.093972
 21
13.8634862613
 31
0.0
  0
LINE
  5
2C1
100
AcDbEntity
  8
3
  6
CONTINUOUS
 62
         1
100
AcDbLine
 10
7.093972
 20
13.8634862613
 30
0.0
 11
7.127302
 21
13.8610862613
 31
0.0
  0
LINE
  5
2C2
100
AcDbEntity
  8
3
  6
CONTINUOUS
 62
         1
100
AcDbLine
 10
7.127302
 20
13.8610862613
 30
0.0
 11
7.194882
 21
13.8712862613
 31
0.0
  0
LINE
  5
2C3
100
AcDbEntity
  8
3
  6
CONTINUOUS
 62
         1
100
AcDbLine
 10
7.194882
 20
13.8712862613
 30
0.0
 11
7.228792
 21
13.8846862613
 31
0.0
  0
LINE
  5
2C4
100
AcDbEntity
  8
3
  6
CONTINUOUS
 62
         1
100
AcDbLine
 10
7.228792
 20
13.8846862613
 30
0.0
 11
7.260962
 21
13.9038862613
 31
0.0
  0
LINE
  5
2C5
100
AcDbEntity
  8
3
  6
CONTINUOUS
 62
         1
100
AcDbLine
 10
7.260962
 20
13.9038862613
 30
0.0
 11
7.289932
 21
13.9284862613
 31
0.0
  0
LINE
  5
2C6
100
AcDbEntity
  8
3
  6
CONTINUOUS
 62
         1
100
AcDbLine
 10
7.289932
 20
13.9284862613
 30
0.0
 11
7.314482
 21
13.9574862613
 31
0.0
  0
LINE
  5
2C7
100
AcDbEntity
  8
3
  6
CONTINUOUS
 62
         1
100
AcDbLine
 10
7.314482
 20
13.9574862613
 30
0.0
 11
7.333702
 21
13.9895862613
 31
0.0
  0
LINE
  5
2C8
100
AcDbEntity
  8
3
  6
CONTINUOUS
 62
         1
100
AcDbLine
 10
7.333702
 20
13.9895862613
 30
0.0
 11
7.347152
 21
14.0235862613
 31
0.0
  0
LINE
  5
2C9
100
AcDbEntity
  8
3
  6
CONTINUOUS
 62
         1
100
AcDbLine
 10
7.347152
 20
14.0235862613
 30
0.0
 11
7.354872
 21
14.0577862613
 31
0.0
  0
LINE
  5
2CA
100
AcDbEntity
  8
3
  6
CONTINUOUS
 62
         1
100
AcDbLine
 10
7.354872
 20
14.0577862613
 30
0.0
 11
7.357302
 21
14.0910862613
 31
0.0
  0
LINE
  5
2CB
100
AcDbEntity
  8
3
  6
CONTINUOUS
 62
         1
100
AcDbLine
 10
7.347152
 20
14.1586862613
 30
0.0
 11
7.357302
 21
14.0910862613
 31
0.0
  0
LINE
  5
2CC
100
AcDbEntity
  8
3
  6
CONTINUOUS
 62
         1
100
AcDbLine
 10
7.333702
 20
14.1925862613
 30
0.0
 11
7.347152
 21
14.1586862613
 31
0.0
  0
LINE
  5
2CD
100
AcDbEntity
  8
3
  6
CONTINUOUS
 62
         1
100
AcDbLine
 10
7.314482
 20
14.2247862613
 30
0.0
 11
7.333702
 21
14.1925862613
 31
0.0
  0
LINE
  5
2CE
100
AcDbEntity
  8
3
  6
CONTINUOUS
 62
         1
100
AcDbLine
 10
7.289932
 20
14.2537862613
 30
0.0
 11
7.314482
 21
14.2247862613
 31
0.0
  0
LINE
  5
2CF
100
AcDbEntity
  8
3
  6
CONTINUOUS
 62
         1
100
AcDbLine
 10
7.260962
 20
14.2782862613
 30
0.0
 11
7.289932
 21
14.2537862613
 31
0.0
  0
LINE
  5
2D0
100
AcDbEntity
  8
3
  6
CONTINUOUS
 62
         1
100
AcDbLine
 10
7.228792
 20
14.2974862613
 30
0.0
 11
7.260962
 21
14.2782862613
 31
0.0
  0
LINE
  5
2D1
100
AcDbEntity
  8
3
  6
CONTINUOUS
 62
         1
100
AcDbLine
 10
7.194882
 20
14.3109862613
 30
0.0
 11
7.228792
 21
14.2974862613
 31
0.0
  0
LINE
  5
2D2
100
AcDbEntity
  8
3
  6
CONTINUOUS
 62
         1
100
AcDbLine
 10
7.160632
 20
14.3186862613
 30
0.0
 11
7.194882
 21
14.3109862613
 31
0.0
  0
LINE
  5
2D3
100
AcDbEntity
  8
3
  6
CONTINUOUS
 62
         1
100
AcDbLine
 10
7.127302
 20
14.3210862613
 30
0.0
 11
7.160632
 21
14.3186862613
 31
0.0
  0
LINE
  5
2D4
100
AcDbEntity
  8
3
  6
CONTINUOUS
 62
         1
100
AcDbLine
 10
7.059732
 20
14.3109862613
 30
0.0
 11
7.127302
 21
14.3210862613
 31
0.0
  0
LINE
  5
2D5
100
AcDbEntity
  8
3
  6
CONTINUOUS
 62
         1
100
AcDbLine
 10
7.025812
 20
14.2974862613
 30
0.0
 11
7.059732
 21
14.3109862613
 31
0.0
  0
LINE
  5
2D6
100
AcDbEntity
  8
3
  6
CONTINUOUS
 62
         1
100
AcDbLine
 10
6.993652
 20
14.2782862613
 30
0.0
 11
7.025812
 21
14.2974862613
 31
0.0
  0
LINE
  5
2D7
100
AcDbEntity
  8
3
  6
CONTINUOUS
 62
         1
100
AcDbLine
 10
6.964672
 20
14.2537862613
 30
0.0
 11
6.993652
 21
14.2782862613
 31
0.0
  0
LINE
  5
2D8
100
AcDbEntity
  8
3
  6
CONTINUOUS
 62
         1
100
AcDbLine
 10
6.940122
 20
14.2247862613
 30
0.0
 11
6.964672
 21
14.2537862613
 31
0.0
  0
LINE
  5
2D9
100
AcDbEntity
  8
3
  6
CONTINUOUS
 62
         1
100
AcDbLine
 10
6.920912
 20
14.1925862613
 30
0.0
 11
6.940122
 21
14.2247862613
 31
0.0
  0
LINE
  5
2DA
100
AcDbEntity
  8
3
  6
CONTINUOUS
 62
         1
100
AcDbLine
 10
6.907452
 20
14.1586862613
 30
0.0
 11
6.920912
 21
14.1925862613
 31
0.0
  0
LINE
  5
2DB
100
AcDbEntity
  8
3
  6
CONTINUOUS
 62
         1
100
AcDbLine
 10
6.899732
 20
14.1244862613
 30
0.0
 11
6.907452
 21
14.1586862613
 31
0.0
  0
LINE
  5
2DC
100
AcDbEntity
  8
3
  6
CONTINUOUS
 62
         1
100
AcDbLine
 10
6.897302
 20
14.0910862613
 30
0.0
 11
6.899732
 21
14.1244862613
 31
0.0
  0
LINE
  5
2DD
100
AcDbEntity
  8
3
  6
CONTINUOUS
 62
         1
100
AcDbLine
 10
6.846052
 20
14.0910862613
 30
0.0
 11
6.858462
 21
14.0084862613
 31
0.0
  0
LINE
  5
2DE
100
AcDbEntity
  8
3
  6
CONTINUOUS
 62
         1
100
AcDbLine
 10
6.858462
 20
14.0084862613
 30
0.0
 11
6.874912
 21
13.9669862613
 31
0.0
  0
LINE
  5
2DF
100
AcDbEntity
  8
3
  6
CONTINUOUS
 62
         1
100
AcDbLine
 10
6.874912
 20
13.9669862613
 30
0.0
 11
6.898412
 21
13.9276862613
 31
0.0
  0
LINE
  5
2E0
100
AcDbEntity
  8
3
  6
CONTINUOUS
 62
         1
100
AcDbLine
 10
6.898412
 20
13.9276862613
 30
0.0
 11
6.928432
 21
13.8922862613
 31
0.0
  0
LINE
  5
2E1
100
AcDbEntity
  8
3
  6
CONTINUOUS
 62
         1
100
AcDbLine
 10
6.928432
 20
13.8922862613
 30
0.0
 11
6.963862
 21
13.8621862613
 31
0.0
  0
LINE
  5
2E2
100
AcDbEntity
  8
3
  6
CONTINUOUS
 62
         1
100
AcDbLine
 10
6.963862
 20
13.8621862613
 30
0.0
 11
7.003202
 21
13.8386862613
 31
0.0
  0
LINE
  5
2E3
100
AcDbEntity
  8
3
  6
CONTINUOUS
 62
         1
100
AcDbLine
 10
7.003202
 20
13.8386862613
 30
0.0
 11
7.044672
 21
13.8222862613
 31
0.0
  0
LINE
  5
2E4
100
AcDbEntity
  8
3
  6
CONTINUOUS
 62
         1
100
AcDbLine
 10
7.044672
 20
13.8222862613
 30
0.0
 11
7.086542
 21
13.8127862613
 31
0.0
  0
LINE
  5
2E5
100
AcDbEntity
  8
3
  6
CONTINUOUS
 62
         1
100
AcDbLine
 10
7.086542
 20
13.8127862613
 30
0.0
 11
7.127302
 21
13.8098862613
 31
0.0
  0
LINE
  5
2E6
100
AcDbEntity
  8
3
  6
CONTINUOUS
 62
         1
100
AcDbLine
 10
7.127302
 20
13.8098862613
 30
0.0
 11
7.209942
 21
13.8222862613
 31
0.0
  0
LINE
  5
2E7
100
AcDbEntity
  8
3
  6
CONTINUOUS
 62
         1
100
AcDbLine
 10
7.209942
 20
13.8222862613
 30
0.0
 11
7.251412
 21
13.8386862613
 31
0.0
  0
LINE
  5
2E8
100
AcDbEntity
  8
3
  6
CONTINUOUS
 62
         1
100
AcDbLine
 10
7.251412
 20
13.8386862613
 30
0.0
 11
7.290742
 21
13.8621862613
 31
0.0
  0
LINE
  5
2E9
100
AcDbEntity
  8
3
  6
CONTINUOUS
 62
         1
100
AcDbLine
 10
7.290742
 20
13.8621862613
 30
0.0
 11
7.326172
 21
13.8922862613
 31
0.0
  0
LINE
  5
2EA
100
AcDbEntity
  8
3
  6
CONTINUOUS
 62
         1
100
AcDbLine
 10
7.326172
 20
13.8922862613
 30
0.0
 11
7.356192
 21
13.9276862613
 31
0.0
  0
LINE
  5
2EB
100
AcDbEntity
  8
3
  6
CONTINUOUS
 62
         1
100
AcDbLine
 10
7.356192
 20
13.9276862613
 30
0.0
 11
7.379682
 21
13.9669862613
 31
0.0
  0
LINE
  5
2EC
100
AcDbEntity
  8
3
  6
CONTINUOUS
 62
         1
100
AcDbLine
 10
7.379682
 20
13.9669862613
 30
0.0
 11
7.396132
 21
14.0084862613
 31
0.0
  0
LINE
  5
2ED
100
AcDbEntity
  8
3
  6
CONTINUOUS
 62
         1
100
AcDbLine
 10
7.396132
 20
14.0084862613
 30
0.0
 11
7.405582
 21
14.0503862613
 31
0.0
  0
LINE
  5
2EE
100
AcDbEntity
  8
3
  6
CONTINUOUS
 62
         1
100
AcDbLine
 10
7.405582
 20
14.0503862613
 30
0.0
 11
7.408552
 21
14.0910862613
 31
0.0
  0
LINE
  5
2EF
100
AcDbEntity
  8
3
  6
CONTINUOUS
 62
         1
100
AcDbLine
 10
7.396132
 20
14.1737862613
 30
0.0
 11
7.408552
 21
14.0910862613
 31
0.0
  0
LINE
  5
2F0
100
AcDbEntity
  8
3
  6
CONTINUOUS
 62
         1
100
AcDbLine
 10
7.379682
 20
14.2151862613
 30
0.0
 11
7.396132
 21
14.1737862613
 31
0.0
  0
LINE
  5
2F1
100
AcDbEntity
  8
3
  6
CONTINUOUS
 62
         1
100
AcDbLine
 10
7.356192
 20
14.2545862613
 30
0.0
 11
7.379682
 21
14.2151862613
 31
0.0
  0
LINE
  5
2F2
100
AcDbEntity
  8
3
  6
CONTINUOUS
 62
         1
100
AcDbLine
 10
7.326172
 20
14.2899862613
 30
0.0
 11
7.356192
 21
14.2545862613
 31
0.0
  0
LINE
  5
2F3
100
AcDbEntity
  8
3
  6
CONTINUOUS
 62
         1
100
AcDbLine
 10
7.290742
 20
14.3199862613
 30
0.0
 11
7.326172
 21
14.2899862613
 31
0.0
  0
LINE
  5
2F4
100
AcDbEntity
  8
3
  6
CONTINUOUS
 62
         1
100
AcDbLine
 10
7.251412
 20
14.3434862613
 30
0.0
 11
7.290742
 21
14.3199862613
 31
0.0
  0
LINE
  5
2F5
100
AcDbEntity
  8
3
  6
CONTINUOUS
 62
         1
100
AcDbLine
 10
7.209942
 20
14.3599862613
 30
0.0
 11
7.251412
 21
14.3434862613
 31
0.0
  0
LINE
  5
2F6
100
AcDbEntity
  8
3
  6
CONTINUOUS
 62
         1
100
AcDbLine
 10
7.168062
 20
14.3693862613
 30
0.0
 11
7.209942
 21
14.3599862613
 31
0.0
  0
LINE
  5
2F7
100
AcDbEntity
  8
3
  6
CONTINUOUS
 62
         1
100
AcDbLine
 10
7.127302
 20
14.3723862613
 30
0.0
 11
7.168062
 21
14.3693862613
 31
0.0
  0
LINE
  5
2F8
100
AcDbEntity
  8
3
  6
CONTINUOUS
 62
         1
100
AcDbLine
 10
7.044672
 20
14.3599862613
 30
0.0
 11
7.127302
 21
14.3723862613
 31
0.0
  0
LINE
  5
2F9
100
AcDbEntity
  8
3
  6
CONTINUOUS
 62
         1
100
AcDbLine
 10
7.003202
 20
14.3434862613
 30
0.0
 11
7.044672
 21
14.3599862613
 31
0.0
  0
LINE
  5
2FA
100
AcDbEntity
  8
3
  6
CONTINUOUS
 62
         1
100
AcDbLine
 10
6.963872
 20
14.3199862613
 30
0.0
 11
7.003202
 21
14.3434862613
 31
0.0
  0
LINE
  5
2FB
100
AcDbEntity
  8
3
  6
CONTINUOUS
 62
         1
100
AcDbLine
 10
6.928432
 20
14.2899862613
 30
0.0
 11
6.963872
 21
14.3199862613
 31
0.0
  0
LINE
  5
2FC
100
AcDbEntity
  8
3
  6
CONTINUOUS
 62
         1
100
AcDbLine
 10
6.898412
 20
14.2545862613
 30
0.0
 11
6.928432
 21
14.2899862613
 31
0.0
  0
LINE
  5
2FD
100
AcDbEntity
  8
3
  6
CONTINUOUS
 62
         1
100
AcDbLine
 10
6.874922
 20
14.2151862613
 30
0.0
 11
6.898412
 21
14.2545862613
 31
0.0
  0
LINE
  5
2FE
100
AcDbEntity
  8
3
  6
CONTINUOUS
 62
         1
100
AcDbLine
 10
6.858472
 20
14.1737862613
 30
0.0
 11
6.874922
 21
14.2151862613
 31
0.0
  0
LINE
  5
2FF
100
AcDbEntity
  8
3
  6
CONTINUOUS
 62
         1
100
AcDbLine
 10
6.849022
 20
14.1318862613
 30
0.0
 11
6.858472
 21
14.1737862613
 31
0.0
  0
LINE
  5
300
100
AcDbEntity
  8
3
  6
CONTINUOUS
 62
         1
100
AcDbLine
 10
6.846052
 20
14.0910862613
 30
0.0
 11
6.849022
 21
14.1318862613
 31
0.0
  0
LINE
  5
301
100
AcDbEntity
  8
3
  6
CONTINUOUS
 62
         1
100
AcDbLine
 10
6.971052
 20
14.1812862613
 30
0.0
 11
7.127302
 21
14.2715862613
 31
0.0
  0
LINE
  5
302
100
AcDbEntity
  8
3
  6
CONTINUOUS
 62
         1
100
AcDbLine
 10
6.971052
 20
14.0008862613
 30
0.0
 11
6.971052
 21
14.1812862613
 31
0.0
  0
LINE
  5
303
100
AcDbEntity
  8
3
  6
CONTINUOUS
 62
         1
100
AcDbLine
 10
6.971052
 20
14.0008862613
 30
0.0
 11
7.127302
 21
13.9106862613
 31
0.0
  0
LINE
  5
304
100
AcDbEntity
  8
3
  6
CONTINUOUS
 62
         1
100
AcDbLine
 10
7.127302
 20
13.9106862613
 30
0.0
 11
7.283552
 21
14.0008862613
 31
0.0
  0
LINE
  5
305
100
AcDbEntity
  8
3
  6
CONTINUOUS
 62
         1
100
AcDbLine
 10
7.283552
 20
14.0008862613
 30
0.0
 11
7.283552
 21
14.1812862613
 31
0.0
  0
LINE
  5
306
100
AcDbEntity
  8
3
  6
CONTINUOUS
 62
         1
100
AcDbLine
 10
7.127312
 20
14.2714862613
 30
0.0
 11
7.283552
 21
14.1812862613
 31
0.0
  0
LINE
  5
307
100
AcDbEntity
  8
3
  6
CONTINUOUS
 62
         1
100
AcDbLine
 10
4.397302
 20
14.0910862613
 30
0.0
 11
4.407452
 21
14.0235862613
 31
0.0
  0
LINE
  5
308
100
AcDbEntity
  8
3
  6
CONTINUOUS
 62
         1
100
AcDbLine
 10
4.407452
 20
14.0235862613
 30
0.0
 11
4.420902
 21
13.9895862613
 31
0.0
  0
LINE
  5
309
100
AcDbEntity
  8
3
  6
CONTINUOUS
 62
         1
100
AcDbLine
 10
4.420902
 20
13.9895862613
 30
0.0
 11
4.440122
 21
13.9574862613
 31
0.0
  0
LINE
  5
30A
100
AcDbEntity
  8
3
  6
CONTINUOUS
 62
         1
100
AcDbLine
 10
4.440122
 20
13.9574862613
 30
0.0
 11
4.464672
 21
13.9284862613
 31
0.0
  0
LINE
  5
30B
100
AcDbEntity
  8
3
  6
CONTINUOUS
 62
         1
100
AcDbLine
 10
4.464672
 20
13.9284862613
 30
0.0
 11
4.493652
 21
13.9038862613
 31
0.0
  0
LINE
  5
30C
100
AcDbEntity
  8
3
  6
CONTINUOUS
 62
         1
100
AcDbLine
 10
4.493652
 20
13.9038862613
 30
0.0
 11
4.525812
 21
13.8846862613
 31
0.0
  0
LINE
  5
30D
100
AcDbEntity
  8
3
  6
CONTINUOUS
 62
         1
100
AcDbLine
 10
4.525812
 20
13.8846862613
 30
0.0
 11
4.559722
 21
13.8712862613
 31
0.0
  0
LINE
  5
30E
100
AcDbEntity
  8
3
  6
CONTINUOUS
 62
         1
100
AcDbLine
 10
4.559722
 20
13.8712862613
 30
0.0
 11
4.593972
 21
13.8634862613
 31
0.0
  0
LINE
  5
30F
100
AcDbEntity
  8
3
  6
CONTINUOUS
 62
         1
100
AcDbLine
 10
4.593972
 20
13.8634862613
 30
0.0
 11
4.627302
 21
13.8610862613
 31
0.0
  0
LINE
  5
310
100
AcDbEntity
  8
3
  6
CONTINUOUS
 62
         1
100
AcDbLine
 10
4.627302
 20
13.8610862613
 30
0.0
 11
4.694882
 21
13.8712862613
 31
0.0
  0
LINE
  5
311
100
AcDbEntity
  8
3
  6
CONTINUOUS
 62
         1
100
AcDbLine
 10
4.694882
 20
13.8712862613
 30
0.0
 11
4.728792
 21
13.8846862613
 31
0.0
  0
LINE
  5
312
100
AcDbEntity
  8
3
  6
CONTINUOUS
 62
         1
100
AcDbLine
 10
4.728792
 20
13.8846862613
 30
0.0
 11
4.760952
 21
13.9038862613
 31
0.0
  0
LINE
  5
313
100
AcDbEntity
  8
3
  6
CONTINUOUS
 62
         1
100
AcDbLine
 10
4.760952
 20
13.9038862613
 30
0.0
 11
4.789932
 21
13.9284862613
 31
0.0
  0
LINE
  5
314
100
AcDbEntity
  8
3
  6
CONTINUOUS
 62
         1
100
AcDbLine
 10
4.789932
 20
13.9284862613
 30
0.0
 11
4.814482
 21
13.9574862613
 31
0.0
  0
LINE
  5
315
100
AcDbEntity
  8
3
  6
CONTINUOUS
 62
         1
100
AcDbLine
 10
4.814482
 20
13.9574862613
 30
0.0
 11
4.833692
 21
13.9895862613
 31
0.0
  0
LINE
  5
316
100
AcDbEntity
  8
3
  6
CONTINUOUS
 62
         1
100
AcDbLine
 10
4.833692
 20
13.9895862613
 30
0.0
 11
4.847152
 21
14.0235862613
 31
0.0
  0
LINE
  5
317
100
AcDbEntity
  8
3
  6
CONTINUOUS
 62
         1
100
AcDbLine
 10
4.847152
 20
14.0235862613
 30
0.0
 11
4.854872
 21
14.0577862613
 31
0.0
  0
LINE
  5
318
100
AcDbEntity
  8
3
  6
CONTINUOUS
 62
         1
100
AcDbLine
 10
4.854872
 20
14.0577862613
 30
0.0
 11
4.857302
 21
14.0910862613
 31
0.0
  0
LINE
  5
319
100
AcDbEntity
  8
3
  6
CONTINUOUS
 62
         1
100
AcDbLine
 10
4.847152
 20
14.1586862613
 30
0.0
 11
4.857302
 21
14.0910862613
 31
0.0
  0
LINE
  5
31A
100
AcDbEntity
  8
3
  6
CONTINUOUS
 62
         1
100
AcDbLine
 10
4.833692
 20
14.1925862613
 30
0.0
 11
4.847152
 21
14.1586862613
 31
0.0
  0
LINE
  5
31B
100
AcDbEntity
  8
3
  6
CONTINUOUS
 62
         1
100
AcDbLine
 10
4.814482
 20
14.2247862613
 30
0.0
 11
4.833692
 21
14.1925862613
 31
0.0
  0
LINE
  5
31C
100
AcDbEntity
  8
3
  6
CONTINUOUS
 62
         1
100
AcDbLine
 10
4.789932
 20
14.2537862613
 30
0.0
 11
4.814482
 21
14.2247862613
 31
0.0
  0
LINE
  5
31D
100
AcDbEntity
  8
3
  6
CONTINUOUS
 62
         1
100
AcDbLine
 10
4.760952
 20
14.2782862613
 30
0.0
 11
4.789932
 21
14.2537862613
 31
0.0
  0
LINE
  5
31E
100
AcDbEntity
  8
3
  6
CONTINUOUS
 62
         1
100
AcDbLine
 10
4.728792
 20
14.2974862613
 30
0.0
 11
4.760952
 21
14.2782862613
 31
0.0
  0
LINE
  5
31F
100
AcDbEntity
  8
3
  6
CONTINUOUS
 62
         1
100
AcDbLine
 10
4.694882
 20
14.3109862613
 30
0.0
 11
4.728792
 21
14.2974862613
 31
0.0
  0
LINE
  5
320
100
AcDbEntity
  8
3
  6
CONTINUOUS
 62
         1
100
AcDbLine
 10
4.660632
 20
14.3186862613
 30
0.0
 11
4.694882
 21
14.3109862613
 31
0.0
  0
LINE
  5
321
100
AcDbEntity
  8
3
  6
CONTINUOUS
 62
         1
100
AcDbLine
 10
4.627302
 20
14.3210862613
 30
0.0
 11
4.660632
 21
14.3186862613
 31
0.0
  0
LINE
  5
322
100
AcDbEntity
  8
3
  6
CONTINUOUS
 62
         1
100
AcDbLine
 10
4.559722
 20
14.3109862613
 30
0.0
 11
4.627302
 21
14.3210862613
 31
0.0
  0
LINE
  5
323
100
AcDbEntity
  8
3
  6
CONTINUOUS
 62
         1
100
AcDbLine
 10
4.525812
 20
14.2974862613
 30
0.0
 11
4.559722
 21
14.3109862613
 31
0.0
  0
LINE
  5
324
100
AcDbEntity
  8
3
  6
CONTINUOUS
 62
         1
100
AcDbLine
 10
4.493652
 20
14.2782862613
 30
0.0
 11
4.525812
 21
14.2974862613
 31
0.0
  0
LINE
  5
325
100
AcDbEntity
  8
3
  6
CONTINUOUS
 62
         1
100
AcDbLine
 10
4.464672
 20
14.2537862613
 30
0.0
 11
4.493652
 21
14.2782862613
 31
0.0
  0
LINE
  5
326
100
AcDbEntity
  8
3
  6
CONTINUOUS
 62
         1
100
AcDbLine
 10
4.440122
 20
14.2247862613
 30
0.0
 11
4.464672
 21
14.2537862613
 31
0.0
  0
LINE
  5
327
100
AcDbEntity
  8
3
  6
CONTINUOUS
 62
         1
100
AcDbLine
 10
4.420902
 20
14.1925862613
 30
0.0
 11
4.440122
 21
14.2247862613
 31
0.0
  0
LINE
  5
328
100
AcDbEntity
  8
3
  6
CONTINUOUS
 62
         1
100
AcDbLine
 10
4.407452
 20
14.1586862613
 30
0.0
 11
4.420902
 21
14.1925862613
 31
0.0
  0
LINE
  5
329
100
AcDbEntity
  8
3
  6
CONTINUOUS
 62
         1
100
AcDbLine
 10
4.399732
 20
14.1244862613
 30
0.0
 11
4.407452
 21
14.1586862613
 31
0.0
  0
LINE
  5
32A
100
AcDbEntity
  8
3
  6
CONTINUOUS
 62
         1
100
AcDbLine
 10
4.397302
 20
14.0910862613
 30
0.0
 11
4.399732
 21
14.1244862613
 31
0.0
  0
LINE
  5
32B
100
AcDbEntity
  8
3
  6
CONTINUOUS
 62
         1
100
AcDbLine
 10
4.346052
 20
14.0910862613
 30
0.0
 11
4.358462
 21
14.0084862613
 31
0.0
  0
LINE
  5
32C
100
AcDbEntity
  8
3
  6
CONTINUOUS
 62
         1
100
AcDbLine
 10
4.358462
 20
14.0084862613
 30
0.0
 11
4.374912
 21
13.9669862613
 31
0.0
  0
LINE
  5
32D
100
AcDbEntity
  8
3
  6
CONTINUOUS
 62
         1
100
AcDbLine
 10
4.374912
 20
13.9669862613
 30
0.0
 11
4.398412
 21
13.9276862613
 31
0.0
  0
LINE
  5
32E
100
AcDbEntity
  8
3
  6
CONTINUOUS
 62
         1
100
AcDbLine
 10
4.398412
 20
13.9276862613
 30
0.0
 11
4.428432
 21
13.8922862613
 31
0.0
  0
LINE
  5
32F
100
AcDbEntity
  8
3
  6
CONTINUOUS
 62
         1
100
AcDbLine
 10
4.428432
 20
13.8922862613
 30
0.0
 11
4.463862
 21
13.8621862613
 31
0.0
  0
LINE
  5
330
100
AcDbEntity
  8
3
  6
CONTINUOUS
 62
         1
100
AcDbLine
 10
4.463862
 20
13.8621862613
 30
0.0
 11
4.503192
 21
13.8386862613
 31
0.0
  0
LINE
  5
331
100
AcDbEntity
  8
3
  6
CONTINUOUS
 62
         1
100
AcDbLine
 10
4.503192
 20
13.8386862613
 30
0.0
 11
4.544672
 21
13.8222862613
 31
0.0
  0
LINE
  5
332
100
AcDbEntity
  8
3
  6
CONTINUOUS
 62
         1
100
AcDbLine
 10
4.544672
 20
13.8222862613
 30
0.0
 11
4.586542
 21
13.8127862613
 31
0.0
  0
LINE
  5
333
100
AcDbEntity
  8
3
  6
CONTINUOUS
 62
         1
100
AcDbLine
 10
4.586542
 20
13.8127862613
 30
0.0
 11
4.627302
 21
13.8098862613
 31
0.0
  0
LINE
  5
334
100
AcDbEntity
  8
3
  6
CONTINUOUS
 62
         1
100
AcDbLine
 10
4.627302
 20
13.8098862613
 30
0.0
 11
4.709942
 21
13.8222862613
 31
0.0
  0
LINE
  5
335
100
AcDbEntity
  8
3
  6
CONTINUOUS
 62
         1
100
AcDbLine
 10
4.709942
 20
13.8222862613
 30
0.0
 11
4.751412
 21
13.8386862613
 31
0.0
  0
LINE
  5
336
100
AcDbEntity
  8
3
  6
CONTINUOUS
 62
         1
100
AcDbLine
 10
4.751412
 20
13.8386862613
 30
0.0
 11
4.790742
 21
13.8621862613
 31
0.0
  0
LINE
  5
337
100
AcDbEntity
  8
3
  6
CONTINUOUS
 62
         1
100
AcDbLine
 10
4.790742
 20
13.8621862613
 30
0.0
 11
4.826172
 21
13.8922862613
 31
0.0
  0
LINE
  5
338
100
AcDbEntity
  8
3
  6
CONTINUOUS
 62
         1
100
AcDbLine
 10
4.826172
 20
13.8922862613
 30
0.0
 11
4.856192
 21
13.9276862613
 31
0.0
  0
LINE
  5
339
100
AcDbEntity
  8
3
  6
CONTINUOUS
 62
         1
100
AcDbLine
 10
4.856192
 20
13.9276862613
 30
0.0
 11
4.879682
 21
13.9669862613
 31
0.0
  0
LINE
  5
33A
100
AcDbEntity
  8
3
  6
CONTINUOUS
 62
         1
100
AcDbLine
 10
4.879682
 20
13.9669862613
 30
0.0
 11
4.896132
 21
14.0084862613
 31
0.0
  0
LINE
  5
33B
100
AcDbEntity
  8
3
  6
CONTINUOUS
 62
         1
100
AcDbLine
 10
4.896132
 20
14.0084862613
 30
0.0
 11
4.905582
 21
14.0503862613
 31
0.0
  0
LINE
  5
33C
100
AcDbEntity
  8
3
  6
CONTINUOUS
 62
         1
100
AcDbLine
 10
4.905582
 20
14.0503862613
 30
0.0
 11
4.908552
 21
14.0910862613
 31
0.0
  0
LINE
  5
33D
100
AcDbEntity
  8
3
  6
CONTINUOUS
 62
         1
100
AcDbLine
 10
4.896132
 20
14.1737862613
 30
0.0
 11
4.908552
 21
14.0910862613
 31
0.0
  0
LINE
  5
33E
100
AcDbEntity
  8
3
  6
CONTINUOUS
 62
         1
100
AcDbLine
 10
4.879682
 20
14.2151862613
 30
0.0
 11
4.896132
 21
14.1737862613
 31
0.0
  0
LINE
  5
33F
100
AcDbEntity
  8
3
  6
CONTINUOUS
 62
         1
100
AcDbLine
 10
4.856192
 20
14.2545862613
 30
0.0
 11
4.879682
 21
14.2151862613
 31
0.0
  0
LINE
  5
340
100
AcDbEntity
  8
3
  6
CONTINUOUS
 62
         1
100
AcDbLine
 10
4.826172
 20
14.2899862613
 30
0.0
 11
4.856192
 21
14.2545862613
 31
0.0
  0
LINE
  5
341
100
AcDbEntity
  8
3
  6
CONTINUOUS
 62
         1
100
AcDbLine
 10
4.790742
 20
14.3199862613
 30
0.0
 11
4.826172
 21
14.2899862613
 31
0.0
  0
LINE
  5
342
100
AcDbEntity
  8
3
  6
CONTINUOUS
 62
         1
100
AcDbLine
 10
4.751412
 20
14.3434862613
 30
0.0
 11
4.790742
 21
14.3199862613
 31
0.0
  0
LINE
  5
343
100
AcDbEntity
  8
3
  6
CONTINUOUS
 62
         1
100
AcDbLine
 10
4.709942
 20
14.3599862613
 30
0.0
 11
4.751412
 21
14.3434862613
 31
0.0
  0
LINE
  5
344
100
AcDbEntity
  8
3
  6
CONTINUOUS
 62
         1
100
AcDbLine
 10
4.668062
 20
14.3693862613
 30
0.0
 11
4.709942
 21
14.3599862613
 31
0.0
  0
LINE
  5
345
100
AcDbEntity
  8
3
  6
CONTINUOUS
 62
         1
100
AcDbLine
 10
4.627302
 20
14.3723862613
 30
0.0
 11
4.668062
 21
14.3693862613
 31
0.0
  0
LINE
  5
346
100
AcDbEntity
  8
3
  6
CONTINUOUS
 62
         1
100
AcDbLine
 10
4.544672
 20
14.3599862613
 30
0.0
 11
4.627302
 21
14.3723862613
 31
0.0
  0
LINE
  5
347
100
AcDbEntity
  8
3
  6
CONTINUOUS
 62
         1
100
AcDbLine
 10
4.503192
 20
14.3434862613
 30
0.0
 11
4.544672
 21
14.3599862613
 31
0.0
  0
LINE
  5
348
100
AcDbEntity
  8
3
  6
CONTINUOUS
 62
         1
100
AcDbLine
 10
4.463862
 20
14.3199862613
 30
0.0
 11
4.503192
 21
14.3434862613
 31
0.0
  0
LINE
  5
349
100
AcDbEntity
  8
3
  6
CONTINUOUS
 62
         1
100
AcDbLine
 10
4.428432
 20
14.2899862613
 30
0.0
 11
4.463862
 21
14.3199862613
 31
0.0
  0
LINE
  5
34A
100
AcDbEntity
  8
3
  6
CONTINUOUS
 62
         1
100
AcDbLine
 10
4.398412
 20
14.2545862613
 30
0.0
 11
4.428432
 21
14.2899862613
 31
0.0
  0
LINE
  5
34B
100
AcDbEntity
  8
3
  6
CONTINUOUS
 62
         1
100
AcDbLine
 10
4.374912
 20
14.2151862613
 30
0.0
 11
4.398412
 21
14.2545862613
 31
0.0
  0
LINE
  5
34C
100
AcDbEntity
  8
3
  6
CONTINUOUS
 62
         1
100
AcDbLine
 10
4.358462
 20
14.1737862613
 30
0.0
 11
4.374912
 21
14.2151862613
 31
0.0
  0
LINE
  5
34D
100
AcDbEntity
  8
3
  6
CONTINUOUS
 62
         1
100
AcDbLine
 10
4.349022
 20
14.1318862613
 30
0.0
 11
4.358462
 21
14.1737862613
 31
0.0
  0
LINE
  5
34E
100
AcDbEntity
  8
3
  6
CONTINUOUS
 62
         1
100
AcDbLine
 10
4.346052
 20
14.0910862613
 30
0.0
 11
4.349022
 21
14.1318862613
 31
0.0
  0
LINE
  5
34F
100
AcDbEntity
  8
3
  6
CONTINUOUS
 62
         1
100
AcDbLine
 10
4.471052
 20
14.1812862613
 30
0.0
 11
4.627302
 21
14.2715862613
 31
0.0
  0
LINE
  5
350
100
AcDbEntity
  8
3
  6
CONTINUOUS
 62
         1
100
AcDbLine
 10
4.471052
 20
14.0008862613
 30
0.0
 11
4.471052
 21
14.1812862613
 31
0.0
  0
LINE
  5
351
100
AcDbEntity
  8
3
  6
CONTINUOUS
 62
         1
100
AcDbLine
 10
4.471052
 20
14.0008862613
 30
0.0
 11
4.627302
 21
13.9106862613
 31
0.0
  0
LINE
  5
352
100
AcDbEntity
  8
3
  6
CONTINUOUS
 62
         1
100
AcDbLine
 10
4.627302
 20
13.9106862613
 30
0.0
 11
4.783552
 21
14.0008862613
 31
0.0
  0
LINE
  5
353
100
AcDbEntity
  8
3
  6
CONTINUOUS
 62
         1
100
AcDbLine
 10
4.783552
 20
14.0008862613
 30
0.0
 11
4.783552
 21
14.1812862613
 31
0.0
  0
LINE
  5
354
100
AcDbEntity
  8
3
  6
CONTINUOUS
 62
         1
100
AcDbLine
 10
4.627302
 20
14.2714862613
 30
0.0
 11
4.783552
 21
14.1812862613
 31
0.0
  0
LINE
  5
355
100
AcDbEntity
  8
3
  6
CONTINUOUS
 62
       221
100
AcDbLine
 10
5.062302
 20
13.4040862613
 30
0.0
 11
6.692282
 21
13.4040862613
 31
0.0
  0
LINE
  5
356
100
AcDbEntity
  8
3
  6
CONTINUOUS
 62
       221
100
AcDbLine
 10
7.861792
 20
13.4040862613
 30
0.0
 11
7.861792
 21
14.5110862613
 31
0.0
  0
LINE
  5
357
100
AcDbEntity
  8
3
  6
CONTINUOUS
 62
       131
100
AcDbLine
 10
3.892802
 20
14.5190862613
 30
0.0
 11
7.861792
 21
14.5190862613
 31
0.0
  0
LINE
  5
358
100
AcDbEntity
  8
3
  6
CONTINUOUS
 62
       221
100
AcDbLine
 10
3.892802
 20
13.4040862613
 30
0.0
 11
3.892802
 21
14.5110862613
 31
0.0
  0
LINE
  5
359
100
AcDbEntity
  8
3
  6
CONTINUOUS
 62
         2
100
AcDbLine
 10
5.597292
 20
12.3714862613
 30
0.0
 11
5.597292
 21
12.6947862613
 31
0.0
  0
LINE
  5
35A
100
AcDbEntity
  8
3
  6
CONTINUOUS
 62
         2
100
AcDbLine
 10
5.597292
 20
12.3714862613
 30
0.0
 11
5.877292
 21
12.2098162613
 31
0.0
  0
LINE
  5
35B
100
AcDbEntity
  8
3
  6
CONTINUOUS
 62
         2
100
AcDbLine
 10
5.877292
 20
12.2098162613
 30
0.0
 11
6.157292
 21
12.3714862613
 31
0.0
  0
LINE
  5
35C
100
AcDbEntity
  8
3
  6
CONTINUOUS
 62
         2
100
AcDbLine
 10
6.157292
 20
12.3714862613
 30
0.0
 11
6.157292
 21
12.6947862613
 31
0.0
  0
LINE
  5
35D
100
AcDbEntity
  8
3
  6
CONTINUOUS
 62
         2
100
AcDbLine
 10
5.877292
 20
12.8563862613
 30
0.0
 11
6.157292
 21
12.6947862613
 31
0.0
  0
LINE
  5
35E
100
AcDbEntity
  8
3
  6
CONTINUOUS
 62
         2
100
AcDbLine
 10
5.597292
 20
12.6947862613
 30
0.0
 11
5.877292
 21
12.8563862613
 31
0.0
  0
LINE
  5
35F
100
AcDbEntity
  8
3
  6
CONTINUOUS
 62
         1
100
AcDbLine
 10
6.250982
 20
12.5018862613
 30
0.0
 11
6.626652
 21
12.5018862613
 31
0.0
  0
LINE
  5
360
100
AcDbEntity
  8
3
  6
CONTINUOUS
 62
         1
100
AcDbLine
 10
6.250982
 20
12.5643862613
 30
0.0
 11
6.626652
 21
12.5643862613
 31
0.0
  0
LINE
  5
361
100
AcDbEntity
  8
3
  6
DASHED
 62
         1
100
AcDbLine
 10
6.533292
 20
12.7515862613
 30
0.0
 11
6.549292
 21
12.7515862613
 31
0.0
  0
LINE
  5
362
100
AcDbEntity
  8
3
  6
CONTINUOUS
 62
         4
100
AcDbLine
 10
3.939792
 20
11.1291262613
 30
0.0
 11
3.939792
 21
13.3790862613
 31
0.0
  0
LINE
  5
363
100
AcDbEntity
  8
3
  6
CONTINUOUS
 62
         4
100
AcDbLine
 10
3.939792
 20
11.1291262613
 30
0.0
 11
4.752292
 21
11.1291262613
 31
0.0
  0
LINE
  5
364
100
AcDbEntity
  8
3
  6
CONTINUOUS
 62
         4
100
AcDbLine
 10
4.752292
 20
11.1291262613
 30
0.0
 11
4.752292
 21
11.3166262613
 31
0.0
  0
LINE
  5
365
100
AcDbEntity
  8
3
  6
CONTINUOUS
 62
         4
100
AcDbLine
 10
4.752292
 20
11.3166262613
 30
0.0
 11
4.763322
 21
11.3900762613
 31
0.0
  0
LINE
  5
366
100
AcDbEntity
  8
3
  6
CONTINUOUS
 62
         4
100
AcDbLine
 10
4.763322
 20
11.3900762613
 30
0.0
 11
4.777942
 21
11.4269462613
 31
0.0
  0
LINE
  5
367
100
AcDbEntity
  8
3
  6
CONTINUOUS
 62
         4
100
AcDbLine
 10
4.777942
 20
11.4269462613
 30
0.0
 11
4.798832
 21
11.4619062613
 31
0.0
  0
LINE
  5
368
100
AcDbEntity
  8
3
  6
CONTINUOUS
 62
         4
100
AcDbLine
 10
4.798832
 20
11.4619062613
 30
0.0
 11
4.825512
 21
11.4933962613
 31
0.0
  0
LINE
  5
369
100
AcDbEntity
  8
3
  6
CONTINUOUS
 62
         4
100
AcDbLine
 10
4.825512
 20
11.4933962613
 30
0.0
 11
4.857012
 21
11.5200762613
 31
0.0
  0
LINE
  5
36A
100
AcDbEntity
  8
3
  6
CONTINUOUS
 62
         4
100
AcDbLine
 10
4.857012
 20
11.5200762613
 30
0.0
 11
4.891972
 21
11.5409662613
 31
0.0
  0
LINE
  5
36B
100
AcDbEntity
  8
3
  6
CONTINUOUS
 62
         4
100
AcDbLine
 10
4.891972
 20
11.5409662613
 30
0.0
 11
4.928832
 21
11.5555862613
 31
0.0
  0
LINE
  5
36C
100
AcDbEntity
  8
3
  6
CONTINUOUS
 62
         4
100
AcDbLine
 10
4.928832
 20
11.5555862613
 30
0.0
 11
4.966062
 21
11.5639862613
 31
0.0
  0
LINE
  5
36D
100
AcDbEntity
  8
3
  6
CONTINUOUS
 62
         4
100
AcDbLine
 10
4.966062
 20
11.5639862613
 30
0.0
 11
5.002292
 21
11.5666262613
 31
0.0
  0
LINE
  5
36E
100
AcDbEntity
  8
3
  6
CONTINUOUS
 62
         4
100
AcDbLine
 10
5.002292
 20
11.5666262613
 30
0.0
 11
6.752292
 21
11.5666262613
 31
0.0
  0
LINE
  5
36F
100
AcDbEntity
  8
3
  6
CONTINUOUS
 62
         4
100
AcDbLine
 10
6.752292
 20
11.5666262613
 30
0.0
 11
6.825742
 21
11.5555862613
 31
0.0
  0
LINE
  5
370
100
AcDbEntity
  8
3
  6
CONTINUOUS
 62
         4
100
AcDbLine
 10
6.825742
 20
11.5555862613
 30
0.0
 11
6.862602
 21
11.5409662613
 31
0.0
  0
LINE
  5
371
100
AcDbEntity
  8
3
  6
CONTINUOUS
 62
         4
100
AcDbLine
 10
6.862602
 20
11.5409662613
 30
0.0
 11
6.897562
 21
11.5200762613
 31
0.0
  0
LINE
  5
372
100
AcDbEntity
  8
3
  6
CONTINUOUS
 62
         4
100
AcDbLine
 10
6.897562
 20
11.5200762613
 30
0.0
 11
6.929062
 21
11.4933962613
 31
0.0
  0
LINE
  5
373
100
AcDbEntity
  8
3
  6
CONTINUOUS
 62
         4
100
AcDbLine
 10
6.929062
 20
11.4933962613
 30
0.0
 11
6.955742
 21
11.4619062613
 31
0.0
  0
LINE
  5
374
100
AcDbEntity
  8
3
  6
CONTINUOUS
 62
         4
100
AcDbLine
 10
6.955742
 20
11.4619062613
 30
0.0
 11
6.976632
 21
11.4269462613
 31
0.0
  0
LINE
  5
375
100
AcDbEntity
  8
3
  6
CONTINUOUS
 62
         4
100
AcDbLine
 10
6.976632
 20
11.4269462613
 30
0.0
 11
6.991252
 21
11.3900762613
 31
0.0
  0
LINE
  5
376
100
AcDbEntity
  8
3
  6
CONTINUOUS
 62
         4
100
AcDbLine
 10
6.991252
 20
11.3900762613
 30
0.0
 11
6.999652
 21
11.3528562613
 31
0.0
  0
LINE
  5
377
100
AcDbEntity
  8
3
  6
CONTINUOUS
 62
         4
100
AcDbLine
 10
6.999652
 20
11.3528562613
 30
0.0
 11
7.002292
 21
11.3166262613
 31
0.0
  0
LINE
  5
378
100
AcDbEntity
  8
3
  6
CONTINUOUS
 62
         4
100
AcDbLine
 10
7.002292
 20
11.1291262613
 30
0.0
 11
7.002292
 21
11.3166262613
 31
0.0
  0
LINE
  5
379
100
AcDbEntity
  8
3
  6
CONTINUOUS
 62
         4
100
AcDbLine
 10
7.002292
 20
11.1291262613
 30
0.0
 11
7.814792
 21
11.1291262613
 31
0.0
  0
LINE
  5
37A
100
AcDbEntity
  8
3
  6
CONTINUOUS
 62
         4
100
AcDbLine
 10
7.814792
 20
11.1291262613
 30
0.0
 11
7.814792
 21
13.3790862613
 31
0.0
  0
LINE
  5
37B
100
AcDbEntity
  8
3
  6
CONTINUOUS
 62
         4
100
AcDbLine
 10
6.692282
 20
13.3790862613
 30
0.0
 11
7.814792
 21
13.3790862613
 31
0.0
  0
LINE
  5
37C
100
AcDbEntity
  8
3
  6
CONTINUOUS
 62
         4
100
AcDbLine
 10
5.127292
 20
13.3790862613
 30
0.0
 11
6.627292
 21
13.3790862613
 31
0.0
  0
LINE
  5
37D
100
AcDbEntity
  8
3
  6
CONTINUOUS
 62
         4
100
AcDbLine
 10
3.939792
 20
13.3790862613
 30
0.0
 11
5.062302
 21
13.3790862613
 31
0.0
  0
LINE
  5
37E
100
AcDbEntity
  8
3
  6
CONTINUOUS
 62
         6
100
AcDbLine
 10
6.995272
 20
13.4040862613
 30
0.0
 11
6.995272
 21
13.4240862613
 31
0.0
  0
LINE
  5
37F
100
AcDbEntity
  8
3
  6
CONTINUOUS
 62
         6
100
AcDbLine
 10
6.634272
 20
13.4040862613
 30
0.0
 11
6.634272
 21
13.4240862613
 31
0.0
  0
LINE
  5
380
100
AcDbEntity
  8
3
  6
CONTINUOUS
 62
         6
100
AcDbLine
 10
5.120272
 20
13.4040862613
 30
0.0
 11
5.120272
 21
13.4240862613
 31
0.0
  0
LINE
  5
381
100
AcDbEntity
  8
3
  6
CONTINUOUS
 62
         6
100
AcDbLine
 10
4.759272
 20
13.4040862613
 30
0.0
 11
4.759272
 21
13.4240862613
 31
0.0
  0
LINE
  5
382
100
AcDbEntity
  8
3
  6
CONTINUOUS
 62
         1
100
AcDbLine
 10
4.221022
 20
13.1192862613
 30
0.0
 11
4.377272
 21
13.2095862613
 31
0.0
  0
LINE
  5
383
100
AcDbEntity
  8
3
  6
CONTINUOUS
 62
         1
100
AcDbLine
 10
4.221022
 20
12.9388862613
 30
0.0
 11
4.221022
 21
13.1192862613
 31
0.0
  0
LINE
  5
384
100
AcDbEntity
  8
3
  6
CONTINUOUS
 62
         1
100
AcDbLine
 10
4.221022
 20
12.9388862613
 30
0.0
 11
4.377272
 21
12.8486862613
 31
0.0
  0
LINE
  5
385
100
AcDbEntity
  8
3
  6
CONTINUOUS
 62
         1
100
AcDbLine
 10
4.377272
 20
12.8486862613
 30
0.0
 11
4.533522
 21
12.9388862613
 31
0.0
  0
LINE
  5
386
100
AcDbEntity
  8
3
  6
CONTINUOUS
 62
         1
100
AcDbLine
 10
4.533522
 20
12.9388862613
 30
0.0
 11
4.533522
 21
13.1192862613
 31
0.0
  0
LINE
  5
387
100
AcDbEntity
  8
3
  6
CONTINUOUS
 62
         1
100
AcDbLine
 10
4.377272
 20
13.2094862613
 30
0.0
 11
4.533522
 21
13.1192862613
 31
0.0
  0
LINE
  5
388
100
AcDbEntity
  8
3
  6
CONTINUOUS
 62
         1
100
AcDbLine
 10
7.221022
 20
13.1192862613
 30
0.0
 11
7.377272
 21
13.2095862613
 31
0.0
  0
LINE
  5
389
100
AcDbEntity
  8
3
  6
CONTINUOUS
 62
         1
100
AcDbLine
 10
7.221022
 20
12.9388862613
 30
0.0
 11
7.221022
 21
13.1192862613
 31
0.0
  0
LINE
  5
38A
100
AcDbEntity
  8
3
  6
CONTINUOUS
 62
         1
100
AcDbLine
 10
7.221022
 20
12.9388862613
 30
0.0
 11
7.377272
 21
12.8486862613
 31
0.0
  0
LINE
  5
38B
100
AcDbEntity
  8
3
  6
CONTINUOUS
 62
         1
100
AcDbLine
 10
7.377272
 20
12.8486862613
 30
0.0
 11
7.533522
 21
12.9388862613
 31
0.0
  0
LINE
  5
38C
100
AcDbEntity
  8
3
  6
CONTINUOUS
 62
         1
100
AcDbLine
 10
7.533522
 20
12.9388862613
 30
0.0
 11
7.533522
 21
13.1192862613
 31
0.0
  0
LINE
  5
38D
100
AcDbEntity
  8
3
  6
CONTINUOUS
 62
         1
100
AcDbLine
 10
7.377272
 20
13.2094862613
 30
0.0
 11
7.533522
 21
13.1192862613
 31
0.0
  0
LINE
  5
38E
100
AcDbEntity
  8
3
  6
CONTINUOUS
 62
         1
100
AcDbLine
 10
4.252292
 20
11.7262962613
 30
0.0
 11
4.377292
 21
11.7984662613
 31
0.0
  0
LINE
  5
38F
100
AcDbEntity
  8
3
  6
CONTINUOUS
 62
         1
100
AcDbLine
 10
4.252292
 20
11.5819562613
 30
0.0
 11
4.252292
 21
11.7262962613
 31
0.0
  0
LINE
  5
390
100
AcDbEntity
  8
3
  6
CONTINUOUS
 62
         1
100
AcDbLine
 10
4.252292
 20
11.5819562613
 30
0.0
 11
4.377292
 21
11.5097862613
 31
0.0
  0
LINE
  5
391
100
AcDbEntity
  8
3
  6
CONTINUOUS
 62
         1
100
AcDbLine
 10
4.377292
 20
11.5097862613
 30
0.0
 11
4.502292
 21
11.5819562613
 31
0.0
  0
LINE
  5
392
100
AcDbEntity
  8
3
  6
CONTINUOUS
 62
         1
100
AcDbLine
 10
4.502292
 20
11.5819562613
 30
0.0
 11
4.502292
 21
11.7262962613
 31
0.0
  0
LINE
  5
393
100
AcDbEntity
  8
3
  6
CONTINUOUS
 62
         1
100
AcDbLine
 10
4.377292
 20
11.7984662613
 30
0.0
 11
4.502292
 21
11.7262962613
 31
0.0
  0
LINE
  5
394
100
AcDbEntity
  8
3
  6
CONTINUOUS
 62
        15
100
AcDbLine
 10
35.227752
 20
11.5291362613
 30
0.0
 11
35.240052
 21
11.5168162613
 31
0.0
  0
LINE
  5
395
100
AcDbEntity
  8
3
  6
CONTINUOUS
 62
        15
100
AcDbLine
 10
32.175052
 20
11.5741262613
 30
0.0
 11
32.7432111471
 21
11.5741262613
 31
0.0
  0
LINE
  5
396
100
AcDbEntity
  8
3
  6
CONTINUOUS
 62
        15
100
AcDbLine
 10
32.115052
 20
12.5741362613
 30
0.0
 11
32.115052
 21
12.6540862613
 31
0.0
  0
LINE
  5
397
100
AcDbEntity
  8
3
  6
CONTINUOUS
 62
        15
100
AcDbLine
 10
32.115052
 20
12.6540862613
 30
0.0
 11
32.485052
 21
12.6540862613
 31
0.0
  0
LINE
  5
398
100
AcDbEntity
  8
3
  6
CONTINUOUS
 62
        15
100
AcDbLine
 10
32.485052
 20
12.6540862613
 30
0.0
 11
32.485052
 21
13.3790862613
 31
0.0
  0
LINE
  5
399
100
AcDbEntity
  8
3
  6
CONTINUOUS
 62
        15
100
AcDbLine
 10
32.425052
 20
13.3790862613
 30
0.0
 11
32.485052
 21
13.3790862613
 31
0.0
  0
LINE
  5
39A
100
AcDbEntity
  8
3
  6
CONTINUOUS
 62
        15
100
AcDbLine
 10
32.425052
 20
13.3790862613
 30
0.0
 11
32.425052
 21
13.4040862613
 31
0.0
  0
LINE
  5
39B
100
AcDbEntity
  8
3
  6
CONTINUOUS
 62
        15
100
AcDbLine
 10
32.115052
 20
13.4040862613
 30
0.0
 11
32.425052
 21
13.4040862613
 31
0.0
  0
LINE
  5
39C
100
AcDbEntity
  8
3
  6
CONTINUOUS
 62
        15
100
AcDbLine
 10
31.240052
 20
13.4040862613
 30
0.0
 11
32.115052
 21
13.4040862613
 31
0.0
  0
LINE
  5
39D
100
AcDbEntity
  8
3
  6
CONTINUOUS
 62
        15
100
AcDbLine
 10
31.240052
 20
12.4781362613
 30
0.0
 11
31.240052
 21
13.4040862613
 31
0.0
  0
LINE
  5
39E
100
AcDbEntity
  8
3
  6
CONTINUOUS
 62
        15
100
AcDbLine
 10
31.240052
 20
11.0291362613
 30
0.0
 11
31.240052
 21
11.6701362613
 31
0.0
  0
LINE
  5
39F
100
AcDbEntity
  8
3
  6
CONTINUOUS
 62
        15
100
AcDbLine
 10
31.240052
 20
11.0291362613
 30
0.0
 11
35.240052
 21
11.0291362613
 31
0.0
  0
LINE
  5
3A0
100
AcDbEntity
  8
3
  6
CONTINUOUS
 62
        15
100
AcDbLine
 10
35.240052
 20
11.0291362613
 30
0.0
 11
35.240052
 21
11.6701362613
 31
0.0
  0
LINE
  5
3A1
100
AcDbEntity
  8
3
  6
CONTINUOUS
 62
        15
100
AcDbLine
 10
35.240052
 20
12.4781362613
 30
0.0
 11
35.240052
 21
13.4040862613
 31
0.0
  0
LINE
  5
3A2
100
AcDbEntity
  8
3
  6
CONTINUOUS
 62
        15
100
AcDbLine
 10
34.365052
 20
13.4040862613
 30
0.0
 11
35.240052
 21
13.4040862613
 31
0.0
  0
LINE
  5
3A3
100
AcDbEntity
  8
3
  6
CONTINUOUS
 62
        15
100
AcDbLine
 10
34.055052
 20
13.4040862613
 30
0.0
 11
34.365052
 21
13.4040862613
 31
0.0
  0
LINE
  5
3A4
100
AcDbEntity
  8
3
  6
CONTINUOUS
 62
        15
100
AcDbLine
 10
34.055052
 20
13.3790862613
 30
0.0
 11
34.055052
 21
13.4040862613
 31
0.0
  0
LINE
  5
3A5
100
AcDbEntity
  8
3
  6
CONTINUOUS
 62
        15
100
AcDbLine
 10
33.995052
 20
13.3790862613
 30
0.0
 11
34.055052
 21
13.3790862613
 31
0.0
  0
LINE
  5
3A6
100
AcDbEntity
  8
3
  6
CONTINUOUS
 62
        15
100
AcDbLine
 10
33.995052
 20
13.3410862613
 30
0.0
 11
33.995052
 21
13.3790862613
 31
0.0
  0
LINE
  5
3A7
100
AcDbEntity
  8
3
  6
CONTINUOUS
 62
        15
100
AcDbLine
 10
33.995052
 20
12.6540862613
 30
0.0
 11
33.995052
 21
13.3410862613
 31
0.0
  0
LINE
  5
3A8
100
AcDbEntity
  8
3
  6
CONTINUOUS
 62
        15
100
AcDbLine
 10
33.995052
 20
12.6540862613
 30
0.0
 11
34.365052
 21
12.6540862613
 31
0.0
  0
LINE
  5
3A9
100
AcDbEntity
  8
3
  6
CONTINUOUS
 62
        15
100
AcDbLine
 10
34.365052
 20
12.5741362613
 30
0.0
 11
34.365052
 21
12.6540862613
 31
0.0
  0
LINE
  5
3AA
100
AcDbEntity
  8
3
  6
CONTINUOUS
 62
       121
100
AcDbLine
 10
33.988552
 20
12.6540862613
 30
0.0
 11
33.988552
 21
13.0790862613
 31
0.0
  0
LINE
  5
3AB
100
AcDbEntity
  8
3
  6
CONTINUOUS
 62
         1
100
AcDbLine
 10
32.491552
 20
12.6540862613
 30
0.0
 11
32.485052
 21
12.6540862613
 31
0.0
  0
LINE
  5
3AC
100
AcDbEntity
  8
3
  6
CONTINUOUS
 62
       121
100
AcDbLine
 10
32.491552
 20
12.6540862613
 30
0.0
 11
32.491552
 21
13.0940862613
 31
0.0
  0
LINE
  5
3AD
100
AcDbEntity
  8
3
  6
CONTINUOUS
 62
         1
100
AcDbLine
 10
33.995052
 20
12.6540862613
 30
0.0
 11
33.988552
 21
12.6540862613
 31
0.0
  0
LINE
  5
3AE
100
AcDbEntity
  8
3
  6
CONTINUOUS
 62
       131
100
AcDbLine
 10
34.183552
 20
13.4040862613
 30
0.0
 11
34.183552
 21
13.4240862613
 31
0.0
  0
LINE
  5
3AF
100
AcDbEntity
  8
3
  6
CONTINUOUS
 62
       131
100
AcDbLine
 10
34.183552
 20
13.4240862613
 30
0.0
 11
33.993552
 21
13.4240862613
 31
0.0
  0
LINE
  5
3B0
100
AcDbEntity
  8
3
  6
CONTINUOUS
 62
       131
100
AcDbLine
 10
33.993552
 20
13.3940862613
 30
0.0
 11
33.993552
 21
13.4240862613
 31
0.0
  0
LINE
  5
3B1
100
AcDbEntity
  8
3
  6
CONTINUOUS
 62
       131
100
AcDbLine
 10
33.993552
 20
13.3940862613
 30
0.0
 11
33.766152
 21
13.3940862613
 31
0.0
  0
LINE
  5
3B2
100
AcDbEntity
  8
3
  6
CONTINUOUS
 62
       131
100
AcDbLine
 10
33.939352
 20
13.0940862613
 30
0.0
 11
33.766152
 21
13.3940862613
 31
0.0
  0
LINE
  5
3B3
100
AcDbEntity
  8
3
  6
CONTINUOUS
 62
       131
100
AcDbLine
 10
33.939352
 20
13.0940862613
 30
0.0
 11
33.830052
 21
13.0940862613
 31
0.0
  0
LINE
  5
3B4
100
AcDbEntity
  8
3
  6
CONTINUOUS
 62
       131
100
AcDbLine
 10
33.830052
 20
13.0940862613
 30
0.0
 11
33.615052
 21
13.3090862613
 31
0.0
  0
LINE
  5
3B5
100
AcDbEntity
  8
3
  6
CONTINUOUS
 62
       131
100
AcDbLine
 10
33.615052
 20
13.3090862613
 30
0.0
 11
32.865052
 21
13.3090862613
 31
0.0
  0
LINE
  5
3B6
100
AcDbEntity
  8
3
  6
CONTINUOUS
 62
       131
100
AcDbLine
 10
32.865052
 20
13.3090862613
 30
0.0
 11
32.650052
 21
13.0940862613
 31
0.0
  0
LINE
  5
3B7
100
AcDbEntity
  8
3
  6
CONTINUOUS
 62
       131
100
AcDbLine
 10
32.650052
 20
13.0940862613
 30
0.0
 11
32.485052
 21
13.0940862613
 31
0.0
  0
LINE
  5
3B8
100
AcDbEntity
  8
3
  6
CONTINUOUS
 62
       131
100
AcDbLine
 10
32.485052
 20
13.3790862613
 30
0.0
 11
32.485052
 21
13.4240862613
 31
0.0
  0
LINE
  5
3B9
100
AcDbEntity
  8
3
  6
CONTINUOUS
 62
       131
100
AcDbLine
 10
32.485052
 20
13.4240862613
 30
0.0
 11
32.295052
 21
13.4240862613
 31
0.0
  0
LINE
  5
3BA
100
AcDbEntity
  8
3
  6
CONTINUOUS
 62
       131
100
AcDbLine
 10
32.295052
 20
13.4040862613
 30
0.0
 11
32.295052
 21
13.4240862613
 31
0.0
  0
LINE
  5
3BB
100
AcDbEntity
  8
3
  6
CONTINUOUS
 62
       131
100
AcDbLine
 10
31.255552
 20
13.4040862613
 30
0.0
 11
31.255552
 21
14.5190862613
 31
0.0
  0
LINE
  5
3BC
100
AcDbEntity
  8
3
  6
CONTINUOUS
 62
       131
100
AcDbLine
 10
35.224552
 20
14.5190862613
 30
0.0
 11
31.255552
 21
14.5190862613
 31
0.0
  0
LINE
  5
3BD
100
AcDbEntity
  8
3
  6
CONTINUOUS
 62
       131
100
AcDbLine
 10
35.224552
 20
13.4040862613
 30
0.0
 11
35.224552
 21
14.5190862613
 31
0.0
  0
LINE
  5
3BE
100
AcDbEntity
  8
3
  6
CONTINUOUS
 62
         1
100
AcDbLine
 10
33.993552
 20
13.0790862613
 30
0.0
 11
33.993552
 21
13.3790862613
 31
0.0
  0
LINE
  5
3BF
100
AcDbEntity
  8
3
  6
CONTINUOUS
 62
         1
100
AcDbLine
 10
33.993552
 20
13.0790862613
 30
0.0
 11
33.948052
 21
13.0790862613
 31
0.0
  0
LINE
  5
3C0
100
AcDbEntity
  8
3
  6
CONTINUOUS
 62
         1
100
AcDbLine
 10
33.948052
 20
13.0790862613
 30
0.0
 11
33.939352
 21
13.0940862613
 31
0.0
  0
LINE
  5
3C1
100
AcDbEntity
  8
3
  6
CONTINUOUS
 62
         1
100
AcDbLine
 10
33.993552
 20
13.3790862613
 30
0.0
 11
33.774852
 21
13.3790862613
 31
0.0
  0
LINE
  5
3C2
100
AcDbEntity
  8
3
  6
CENTER
 62
       131
100
AcDbLine
 10
33.240052
 20
13.3653825016
 30
0.0
 11
33.240052
 21
14.1371607994
 31
0.0
  0
LINE
  5
3C3
100
AcDbEntity
  8
3
  6
CENTER
 62
       131
100
AcDbLine
 10
34.8303866601
 20
14.0910862613
 30
0.0
 11
34.1300693159
 21
14.0910862613
 31
0.0
  0
LINE
  5
3C4
100
AcDbEntity
  8
3
  6
CENTER
 62
       131
100
AcDbLine
 10
32.3259699467
 20
14.0910862613
 30
0.0
 11
31.6508892635
 21
14.0910862613
 31
0.0
  0
LINE
  5
3C5
100
AcDbEntity
  8
3
  6
CENTER
 62
       131
100
AcDbLine
 10
34.490052
 20
13.7322153962
 30
0.0
 11
34.490052
 21
14.4087124227
 31
0.0
  0
LINE
  5
3C6
100
AcDbEntity
  8
3
  6
CENTER
 62
       131
100
AcDbLine
 10
31.990052
 20
13.7036310148
 30
0.0
 11
31.990052
 21
14.4277686769
 31
0.0
  0
LINE
  5
3C7
100
AcDbEntity
  8
3
  6
CENTER
 62
       121
100
AcDbLine
 10
32.4554783526
 20
12.5330862613
 30
0.0
 11
34.0781274512
 21
12.5330862613
 31
0.0
  0
LINE
  5
3C8
100
AcDbEntity
  8
3
  6
CENTER
 62
       121
100
AcDbLine
 10
33.240052
 20
11.7330962613
 30
0.0
 11
33.240052
 21
13.1961381864
 31
0.0
  0
LINE
  5
3C9
100
AcDbEntity
  8
3
  6
CENTER
 62
        15
100
AcDbLine
 10
33.240052
 20
10.7486162613
 30
0.0
 11
33.240052
 21
11.7330962613
 31
0.0
  0
LINE
  5
3CA
100
AcDbEntity
  8
3
  6
CONTINUOUS
 62
         6
100
AcDbLine
 10
4.759272
 20
13.4240862613
 30
0.0
 11
5.120272
 21
13.4240862613
 31
0.0
  0
LINE
  5
3CB
100
AcDbEntity
  8
3
  6
CONTINUOUS
 62
         6
100
AcDbLine
 10
6.634272
 20
13.4240862613
 30
0.0
 11
6.995272
 21
13.4240862613
 31
0.0
  0
LINE
  5
3CC
100
AcDbEntity
  8
3
  6
CENTER
 62
         4
100
AcDbLine
 10
6.814772
 20
12.8857862613
 30
0.0
 11
6.814772
 21
13.5953862613
 31
0.0
  0
LINE
  5
3CD
100
AcDbEntity
  8
3
  6
CENTER
 62
         4
100
AcDbLine
 10
4.939772
 20
12.9211862613
 30
0.0
 11
4.939772
 21
13.5953862613
 31
0.0
  0
LINE
  5
3CE
100
AcDbEntity
  8
3
  6
CENTER
 62
         1
100
AcDbLine
 10
6.377292
 20
11.9380462613
 30
0.0
 11
6.377292
 21
13.1389862613
 31
0.0
  0
LINE
  5
3CF
100
AcDbEntity
  8
3
  6
CENTER
 62
       221
100
AcDbLine
 10
6.708662
 20
14.0910862613
 30
0.0
 11
7.545962
 21
14.0910862613
 31
0.0
  0
LINE
  5
3D0
100
AcDbEntity
  8
3
  6
CENTER
 62
       221
100
AcDbLine
 10
5.561772
 20
13.7470862613
 30
0.0
 11
6.192842
 21
13.7470862613
 31
0.0
  0
LINE
  5
3D1
100
AcDbEntity
  8
3
  6
CENTER
 62
       221
100
AcDbLine
 10
4.208662
 20
14.0910862613
 30
0.0
 11
5.045962
 21
14.0910862613
 31
0.0
  0
LINE
  5
3D2
100
AcDbEntity
  8
3
  6
CENTER
 62
       221
100
AcDbLine
 10
7.127302
 20
13.6811862613
 30
0.0
 11
7.127302
 21
14.5010862613
 31
0.0
  0
LINE
  5
3D3
100
AcDbEntity
  8
3
  6
CENTER
 62
       221
100
AcDbLine
 10
4.627302
 20
13.6811862613
 30
0.0
 11
4.627302
 21
14.5010862613
 31
0.0
  0
LINE
  5
3D4
100
AcDbEntity
  8
3
  6
CONTINUOUS
 62
        15
100
AcDbLine
 10
4.752312
 20
11.0291362613
 30
0.0
 11
4.752292
 21
11.1291262613
 31
0.0
  0
LINE
  5
3D5
100
AcDbEntity
  8
3
  6
CONTINUOUS
 62
        15
100
AcDbLine
 10
7.002312
 20
11.0291362613
 30
0.0
 11
7.002292
 21
11.1291262613
 31
0.0
  0
LINE
  5
3D6
100
AcDbEntity
  8
3
  6
CENTER
 62
        15
100
AcDbLine
 10
7.032282
 20
11.6541362613
 30
0.0
 11
7.8452345683
 21
11.6541362613
 31
0.0
  0
LINE
  5
3D7
100
AcDbEntity
  8
3
  6
CENTER
 62
        15
100
AcDbLine
 10
4.064822
 20
11.6541262613
 30
0.0
 11
4.689822
 21
11.6541262613
 31
0.0
  0
LINE
  5
3D8
100
AcDbEntity
  8
3
  6
CENTER
 62
        15
100
AcDbLine
 10
4.377312
 20
11.1779017506
 30
0.0
 11
4.377312
 21
12.7165862613
 31
0.0
  0
LINE
  5
3D9
100
AcDbEntity
  8
3
  6
CENTER
 62
        15
100
AcDbLine
 10
3.9820616559
 20
13.0290862613
 30
0.0
 11
4.784462
 21
13.0290862613
 31
0.0
  0
LINE
  5
3DA
100
AcDbEntity
  8
3
  6
CENTER
 62
        15
100
AcDbLine
 10
4.377312
 20
12.7165862613
 30
0.0
 11
4.377292
 21
13.3415862613
 31
0.0
  0
LINE
  5
3DB
100
AcDbEntity
  8
3
  6
CENTER
 62
        15
100
AcDbLine
 10
6.946152
 20
13.0290862613
 30
0.0
 11
7.7517177858
 21
13.0290862613
 31
0.0
  0
LINE
  5
3DC
100
AcDbEntity
  8
3
  6
CENTER
 62
        15
100
AcDbLine
 10
7.377292
 20
12.6144862613
 30
0.0
 11
7.377292
 21
13.4286547048
 31
0.0
  0
LINE
  5
3DD
100
AcDbEntity
  8
3
  6
CENTER
 62
        15
100
AcDbLine
 10
7.564782
 20
11.6541362613
 30
0.0
 11
7.689822
 21
11.6541262613
 31
0.0
  0
LINE
  5
3DE
100
AcDbEntity
  8
3
  6
CENTER
 62
        15
100
AcDbLine
 10
6.877332
 20
11.6541262613
 30
0.0
 11
7.032282
 21
11.6541362613
 31
0.0
  0
LINE
  5
3DF
100
AcDbEntity
  8
3
  6
CENTER
 62
        15
100
AcDbLine
 10
7.377302
 20
11.1829162613
 30
0.0
 11
7.377302
 21
12.1564362613
 31
0.0
  0
LINE
  5
3E0
100
AcDbEntity
  8
3
  6
CENTER
 62
         1
100
AcDbLine
 10
4.9673985162
 20
12.5330862613
 30
0.0
 11
6.784973661
 21
12.5330862613
 31
0.0
  0
LINE
  5
3E1
100
AcDbEntity
  8
3
  6
CENTER
 62
         1
100
AcDbLine
 10
5.877312
 20
11.6524150311
 30
0.0
 11
5.877312
 21
13.3387719358
 31
0.0
  0
LINE
  5
3E2
100
AcDbEntity
  8
3
  6
CENTER
 62
         1
100
AcDbLine
 10
13.071422
 20
11.8490562613
 30
0.0
 11
13.071422
 21
13.3079862613
 31
0.0
  0
LINE
  5
3E3
100
AcDbEntity
  8
3
  6
CONTINUOUS
 62
         1
100
AcDbLine
 10
12.821422
 20
12.5643862613
 30
0.0
 11
13.321422
 21
12.5643862613
 31
0.0
  0
LINE
  5
3E4
100
AcDbEntity
  8
3
  6
CONTINUOUS
 62
         1
100
AcDbLine
 10
12.821422
 20
12.5018862613
 30
0.0
 11
13.321422
 21
12.5018862613
 31
0.0
  0
LINE
  5
3E5
100
AcDbEntity
  8
3
  6
CONTINUOUS
 62
         6
100
AcDbLine
 10
13.322922
 20
13.4240862613
 30
0.0
 11
13.683952
 21
13.4240862613
 31
0.0
  0
LINE
  5
3E6
100
AcDbEntity
  8
3
  6
CENTER
 62
         4
100
AcDbLine
 10
13.503422
 20
13.0043862613
 30
0.0
 11
13.503422
 21
13.5348862613
 31
0.0
  0
LINE
  5
3E7
100
AcDbEntity
  8
3
  6
DASHED
 62
         2
100
AcDbLine
 10
12.696422
 20
12.8455862613
 30
0.0
 11
12.821422
 21
12.8455862613
 31
0.0
  0
LINE
  5
3E8
100
AcDbEntity
  8
3
  6
DASHED
 62
         2
100
AcDbLine
 10
12.696422
 20
12.2206162613
 30
0.0
 11
12.821422
 21
12.2206145946
 31
0.0
  0
LINE
  5
3E9
100
AcDbEntity
  8
3
  6
CONTINUOUS
 62
         2
100
AcDbLine
 10
12.696422
 20
12.2206162613
 30
0.0
 11
12.696422
 21
12.8455862613
 31
0.0
  0
LINE
  5
3EA
100
AcDbEntity
  8
3
  6
CONTINUOUS
 62
         2
100
AcDbLine
 10
12.732502
 20
12.1581162613
 30
0.0
 11
12.732502
 21
12.9080862613
 31
0.0
  0
LINE
  5
3EB
100
AcDbEntity
  8
3
  6
CONTINUOUS
 62
         2
100
AcDbLine
 10
11.643922
 20
12.2908562613
 30
0.0
 11
11.643922
 21
12.7752862613
 31
0.0
  0
LINE
  5
3EC
100
AcDbEntity
  8
3
  6
CONTINUOUS
 62
         2
100
AcDbLine
 10
11.706422
 20
12.6947862613
 30
0.0
 11
12.644402
 21
12.6947862613
 31
0.0
  0
LINE
  5
3ED
100
AcDbEntity
  8
3
  6
CONTINUOUS
 62
         2
100
AcDbLine
 10
11.706422
 20
12.3714862613
 30
0.0
 11
12.644402
 21
12.3714862613
 31
0.0
  0
LINE
  5
3EE
100
AcDbEntity
  8
3
  6
CONTINUOUS
 62
         2
100
AcDbLine
 10
12.644402
 20
12.2206162613
 30
0.0
 11
12.644402
 21
12.8455862613
 31
0.0
  0
LINE
  5
3EF
100
AcDbEntity
  8
3
  6
CENTER
 62
         2
100
AcDbLine
 10
11.438822
 20
12.5330862613
 30
0.0
 11
13.8352971519
 21
12.5330862613
 31
0.0
  0
LINE
  5
3F0
100
AcDbEntity
  8
3
  6
CENTER
 62
       131
100
AcDbLine
 10
23.207352
 20
13.4624862613
 30
0.0
 11
23.207352
 21
14.7227862613
 31
0.0
  0
LINE
  5
3F1
100
AcDbEntity
  8
3
  6
CENTER
 62
       131
100
AcDbLine
 10
26.207352
 20
13.4040862613
 30
0.0
 11
26.207352
 21
14.7052862613
 31
0.0
  0
LINE
  5
3F2
100
AcDbEntity
  8
3
  6
CENTER
 62
       131
100
AcDbLine
 10
22.894852
 20
14.0910862613
 30
0.0
 11
23.611052
 21
14.0910862613
 31
0.0
  0
LINE
  5
3F3
100
AcDbEntity
  8
3
  6
DASHED
 62
         1
100
AcDbLine
 10
22.727852
 20
14.2424862613
 30
0.0
 11
23.598952
 21
14.2424862613
 31
0.0
  0
LINE
  5
3F4
100
AcDbEntity
  8
3
  6
DASHED
 62
         1
100
AcDbLine
 10
22.727852
 20
13.9396862613
 30
0.0
 11
23.598952
 21
13.9396862613
 31
0.0
  0
LINE
  5
3F5
100
AcDbEntity
  8
3
  6
CENTER
 62
       163
100
AcDbLine
 10
22.186852
 20
14.0910862613
 30
0.0
 11
22.894852
 21
14.0910862613
 31
0.0
  0
LINE
  5
3F6
100
AcDbEntity
  8
3
  6
DASHED
 62
         1
100
AcDbLine
 10
20.063852
 20
14.2424862613
 30
0.0
 11
20.934952
 21
14.2424862613
 31
0.0
  0
LINE
  5
3F7
100
AcDbEntity
  8
3
  6
DASHED
 62
         1
100
AcDbLine
 10
20.063852
 20
13.9396862613
 30
0.0
 11
20.934952
 21
13.9396862613
 31
0.0
  0
LINE
  5
3F8
100
AcDbEntity
  8
3
  6
CENTER
 62
       131
100
AcDbLine
 10
20.455452
 20
13.4624862613
 30
0.0
 11
20.455452
 21
14.7227862613
 31
0.0
  0
LINE
  5
3F9
100
AcDbEntity
  8
3
  6
CENTER
 62
       131
100
AcDbLine
 10
17.455452
 20
13.4040862613
 30
0.0
 11
17.455452
 21
14.7052862613
 31
0.0
  0
LINE
  5
3FA
100
AcDbEntity
  8
3
  6
CENTER
 62
       131
100
AcDbLine
 10
16.749652
 20
14.0910862613
 30
0.0
 11
17.387952
 21
14.0910862613
 31
0.0
  0
LINE
  5
3FB
100
AcDbEntity
  8
3
  6
CENTER
 62
       131
100
AcDbLine
 10
20.051752
 20
14.0910862613
 30
0.0
 11
20.767952
 21
14.0910862613
 31
0.0
  0
LINE
  5
3FC
100
AcDbEntity
  8
3
  6
DASHED
 62
         1
100
AcDbLine
 10
16.647952
 20
14.2424862613
 30
0.0
 11
17.144052
 21
14.2424862613
 31
0.0
  0
LINE
  5
3FD
100
AcDbEntity
  8
3
  6
DASHED
 62
         1
100
AcDbLine
 10
16.647952
 20
13.9396862613
 30
0.0
 11
17.144052
 21
13.9396862613
 31
0.0
  0
LINE
  5
3FE
100
AcDbEntity
  8
3
  6
CENTER
 62
       163
100
AcDbLine
 10
20.767952
 20
14.0910862613
 30
0.0
 11
21.396852
 21
14.0910862613
 31
0.0
  0
LINE
  5
3FF
100
AcDbEntity
  8
3
  6
CENTER
 62
       221
100
AcDbLine
 10
16.134252
 20
14.0910862613
 30
0.0
 11
16.749652
 21
14.0910862613
 31
0.0
  0
LINE
  5
400
100
AcDbEntity
  8
3
  6
CONTINUOUS
 62
       221
100
AcDbLine
 10
16.267952
 20
13.5440862613
 30
0.0
 11
16.267952
 21
13.9500862613
 31
0.0
  0
LINE
  5
401
100
AcDbEntity
  8
3
  6
CENTER
 62
       221
100
AcDbLine
 10
16.134252
 20
13.7470862613
 30
0.0
 11
16.7834262667
 21
13.7470862613
 31
0.0
  0
LINE
  5
402
100
AcDbEntity
  8
3
  6
CONTINUOUS
 62
         2
100
AcDbLine
 10
14.716452
 20
18.7511862613
 30
0.0
 11
14.716452
 21
19.3761862613
 31
0.0
  0
LINE
  5
403
100
AcDbEntity
  8
3
  6
CONTINUOUS
 62
         2
100
AcDbLine
 10
14.680352
 20
18.6874862613
 30
0.0
 11
14.680352
 21
19.4374862613
 31
0.0
  0
LINE
  5
404
100
AcDbEntity
  8
3
  6
CONTINUOUS
 62
         2
100
AcDbLine
 10
12.696422
 20
18.7511862613
 30
0.0
 11
12.696422
 21
19.3761862613
 31
0.0
  0
LINE
  5
405
100
AcDbEntity
  8
3
  6
CONTINUOUS
 62
         2
100
AcDbLine
 10
12.732502
 20
18.6874862613
 30
0.0
 11
12.732502
 21
19.4374862613
 31
0.0
  0
LINE
  5
406
100
AcDbEntity
  8
3
  6
CONTINUOUS
 62
         2
100
AcDbLine
 10
11.643922
 20
18.8213862613
 30
0.0
 11
11.643922
 21
19.3058862613
 31
0.0
  0
LINE
  5
407
100
AcDbEntity
  8
3
  6
CONTINUOUS
 62
         2
100
AcDbLine
 10
11.706422
 20
19.2252862613
 30
0.0
 11
12.644392
 21
19.2252862613
 31
0.0
  0
LINE
  5
408
100
AcDbEntity
  8
3
  6
CONTINUOUS
 62
         2
100
AcDbLine
 10
11.706422
 20
18.9019862613
 30
0.0
 11
12.644402
 21
18.9019862613
 31
0.0
  0
LINE
  5
409
100
AcDbEntity
  8
3
  6
CONTINUOUS
 62
         2
100
AcDbLine
 10
21.760052
 20
18.7507862613
 30
0.0
 11
21.902852
 21
18.7507862613
 31
0.0
  0
LINE
  5
40A
100
AcDbEntity
  8
3
  6
CONTINUOUS
 62
         2
100
AcDbLine
 10
21.760052
 20
19.3757862613
 30
0.0
 11
21.902852
 21
19.3757862613
 31
0.0
  0
LINE
  5
40B
100
AcDbEntity
  8
3
  6
CONTINUOUS
 62
         2
100
AcDbLine
 10
12.644402
 20
18.7511862613
 30
0.0
 11
12.644402
 21
19.3761862613
 31
0.0
  0
LINE
  5
40C
100
AcDbEntity
  8
3
  6
CENTER
 62
         2
100
AcDbLine
 10
11.438822
 20
19.0636862613
 30
0.0
 11
13.331422
 21
19.0623862613
 31
0.0
  0
LINE
  5
40D
100
AcDbEntity
  8
3
  6
CENTER
 62
         1
100
AcDbLine
 10
12.759302
 20
18.5625862613
 30
0.0
 11
13.399352
 21
18.5625862613
 31
0.0
  0
LINE
  5
40E
100
AcDbEntity
  8
3
  6
CENTER
 62
         1
100
AcDbLine
 10
13.081422
 20
18.1892862613
 30
0.0
 11
13.081422
 21
18.8241862613
 31
0.0
  0
LINE
  5
40F
100
AcDbEntity
  8
3
  6
CONTINUOUS
 62
         1
100
AcDbLine
 10
12.871422
 20
18.3125862613
 30
0.0
 11
12.871422
 21
19.8125862613
 31
0.0
  0
LINE
  5
410
100
AcDbEntity
  8
3
  6
CONTINUOUS
 62
         1
100
AcDbLine
 10
13.291422
 20
18.3125862613
 30
0.0
 11
13.291422
 21
19.8125862613
 31
0.0
  0
LINE
  5
411
100
AcDbEntity
  8
3
  6
CENTER
 62
         1
100
AcDbLine
 10
14.013452
 20
19.5632862613
 30
0.0
 11
14.653552
 21
19.5632862613
 31
0.0
  0
LINE
  5
412
100
AcDbEntity
  8
3
  6
CENTER
 62
         1
100
AcDbLine
 10
14.331452
 20
19.3024862613
 30
0.0
 11
14.331452
 21
19.9373862613
 31
0.0
  0
LINE
  5
413
100
AcDbEntity
  8
3
  6
CONTINUOUS
 62
         1
100
AcDbLine
 10
14.541452
 20
18.3140862613
 30
0.0
 11
14.541452
 21
19.8140862613
 31
0.0
  0
LINE
  5
414
100
AcDbEntity
  8
3
  6
CONTINUOUS
 62
         1
100
AcDbLine
 10
14.121452
 20
18.3140862613
 30
0.0
 11
14.121452
 21
19.8140862613
 31
0.0
  0
LINE
  5
415
100
AcDbEntity
  8
3
  6
CENTER
 62
         4
100
AcDbLine
 10
13.253432
 20
19.9989862613
 30
0.0
 11
13.753452
 21
19.9989862613
 31
0.0
  0
LINE
  5
416
100
AcDbEntity
  8
3
  6
CENTER
 62
         4
100
AcDbLine
 10
13.503412
 20
19.7489862613
 30
0.0
 11
13.503412
 21
20.2489862613
 31
0.0
  0
LINE
  5
417
100
AcDbEntity
  8
3
  6
CENTER
 62
         4
100
AcDbLine
 10
13.238332
 20
18.1257862613
 30
0.0
 11
13.725952
 21
18.1257862613
 31
0.0
  0
LINE
  5
418
100
AcDbEntity
  8
3
  6
CENTER
 62
         4
100
AcDbLine
 10
13.503422
 20
17.8871862613
 30
0.0
 11
13.503422
 21
18.3785862613
 31
0.0
  0
LINE
  5
419
100
AcDbEntity
  8
3
  6
CENTER
 62
         1
100
AcDbLine
 10
13.331422
 20
19.0632862613
 30
0.0
 11
14.081452
 21
19.0632862613
 31
0.0
  0
LINE
  5
41A
100
AcDbEntity
  8
3
  6
CENTER
 62
         4
100
AcDbLine
 10
13.183742
 20
17.5632862613
 30
0.0
 11
14.081452
 21
17.5632862613
 31
0.0
  0
LINE
  5
41B
100
AcDbEntity
  8
3
  6
CENTER
 62
         4
100
AcDbLine
 10
13.058742
 20
20.5632862613
 30
0.0
 11
14.081452
 21
20.5632862613
 31
0.0
  0
LINE
  5
41C
100
AcDbEntity
  8
3
  6
DASHED
 62
         1
100
AcDbLine
 10
22.894852
 20
17.9646862613
 30
0.0
 11
23.598952
 21
17.9646862613
 31
0.0
  0
LINE
  5
41D
100
AcDbEntity
  8
3
  6
DASHED
 62
         1
100
AcDbLine
 10
22.894852
 20
17.6618862613
 30
0.0
 11
23.598952
 21
17.6618862613
 31
0.0
  0
LINE
  5
41E
100
AcDbEntity
  8
3
  6
DASHED
 62
         1
100
AcDbLine
 10
22.894852
 20
20.4646862613
 30
0.0
 11
23.598952
 21
20.4646862613
 31
0.0
  0
LINE
  5
41F
100
AcDbEntity
  8
3
  6
DASHED
 62
         1
100
AcDbLine
 10
22.894852
 20
20.1618862613
 30
0.0
 11
23.598952
 21
20.1618862613
 31
0.0
  0
LINE
  5
420
100
AcDbEntity
  8
3
  6
CONTINUOUS
 62
       121
100
AcDbLine
 10
21.902852
 20
18.3132862613
 30
0.0
 11
21.902852
 21
19.8132862613
 31
0.0
  0
LINE
  5
421
100
AcDbEntity
  8
3
  6
CENTER
 62
       163
100
AcDbLine
 10
22.078952
 20
20.3132862613
 30
0.0
 11
22.894852
 21
20.3132862613
 31
0.0
  0
LINE
  5
422
100
AcDbEntity
  8
3
  6
CENTER
 62
       163
100
AcDbLine
 10
22.078952
 20
17.8132862613
 30
0.0
 11
22.894852
 21
17.8132862613
 31
0.0
  0
LINE
  5
423
100
AcDbEntity
  8
3
  6
CENTER
 62
       131
100
AcDbLine
 10
23.357852
 20
19.4462862613
 30
0.0
 11
23.357852
 21
19.9923862613
 31
0.0
  0
LINE
  5
424
100
AcDbEntity
  8
3
  6
CENTER
 62
       131
100
AcDbLine
 10
23.084852
 20
19.7142862613
 30
0.0
 11
23.630952
 21
19.7142862613
 31
0.0
  0
LINE
  5
425
100
AcDbEntity
  8
3
  6
CENTER
 62
       131
100
AcDbLine
 10
26.431852
 20
19.4462862613
 30
0.0
 11
26.431852
 21
19.9923862613
 31
0.0
  0
LINE
  5
426
100
AcDbEntity
  8
3
  6
CENTER
 62
       131
100
AcDbLine
 10
26.158852
 20
19.7142862613
 30
0.0
 11
26.704952
 21
19.7142862613
 31
0.0
  0
LINE
  5
427
100
AcDbEntity
  8
3
  6
CENTER
 62
       131
100
AcDbLine
 10
25.957452
 20
20.7192862613
 30
0.0
 11
26.582452
 21
20.7192862613
 31
0.0
  0
LINE
  5
428
100
AcDbEntity
  8
3
  6
CENTER
 62
       131
100
AcDbLine
 10
26.207352
 20
20.4067862613
 30
0.0
 11
26.207352
 21
21.0317862613
 31
0.0
  0
LINE
  5
429
100
AcDbEntity
  8
3
  6
CENTER
 62
       131
100
AcDbLine
 10
25.957452
 20
17.4072862613
 30
0.0
 11
26.582452
 21
17.4072862613
 31
0.0
  0
LINE
  5
42A
100
AcDbEntity
  8
3
  6
CENTER
 62
       131
100
AcDbLine
 10
26.207352
 20
17.0947862613
 30
0.0
 11
26.207352
 21
17.7197862613
 31
0.0
  0
LINE
  5
42B
100
AcDbEntity
  8
3
  6
CENTER
 62
       131
100
AcDbLine
 10
22.957452
 20
17.4072862613
 30
0.0
 11
23.582452
 21
17.4072862613
 31
0.0
  0
LINE
  5
42C
100
AcDbEntity
  8
3
  6
CENTER
 62
       131
100
AcDbLine
 10
23.207352
 20
17.0947862613
 30
0.0
 11
23.207352
 21
17.7197862613
 31
0.0
  0
LINE
  5
42D
100
AcDbEntity
  8
3
  6
CENTER
 62
       131
100
AcDbLine
 10
22.957452
 20
20.7192862613
 30
0.0
 11
23.582452
 21
20.7192862613
 31
0.0
  0
LINE
  5
42E
100
AcDbEntity
  8
3
  6
CENTER
 62
       131
100
AcDbLine
 10
23.207352
 20
20.4067862613
 30
0.0
 11
23.207352
 21
21.0317862613
 31
0.0
  0
LINE
  5
42F
100
AcDbEntity
  8
3
  6
CENTER
 62
       131
100
AcDbLine
 10
25.7914108662
 20
17.8132862613
 30
0.0
 11
27.110152
 21
17.8132862613
 31
0.0
  0
LINE
  5
430
100
AcDbEntity
  8
3
  6
CENTER
 62
       131
100
AcDbLine
 10
22.894852
 20
20.3132862613
 30
0.0
 11
23.9086541959
 21
20.3132862613
 31
0.0
  0
LINE
  5
431
100
AcDbEntity
  8
3
  6
DASHED
 62
         1
100
AcDbLine
 10
20.063852
 20
17.9646862613
 30
0.0
 11
20.767952
 21
17.9646862613
 31
0.0
  0
LINE
  5
432
100
AcDbEntity
  8
3
  6
DASHED
 62
         1
100
AcDbLine
 10
20.063852
 20
17.6618862613
 30
0.0
 11
20.767952
 21
17.6618862613
 31
0.0
  0
LINE
  5
433
100
AcDbEntity
  8
3
  6
DASHED
 62
         1
100
AcDbLine
 10
20.063852
 20
20.4646862613
 30
0.0
 11
20.767952
 21
20.4646862613
 31
0.0
  0
LINE
  5
434
100
AcDbEntity
  8
3
  6
DASHED
 62
         1
100
AcDbLine
 10
20.063852
 20
20.1618862613
 30
0.0
 11
20.767952
 21
20.1618862613
 31
0.0
  0
LINE
  5
435
100
AcDbEntity
  8
3
  6
CONTINUOUS
 62
       121
100
AcDbLine
 10
21.760052
 20
18.3132862613
 30
0.0
 11
21.760052
 21
19.8132862613
 31
0.0
  0
LINE
  5
436
100
AcDbEntity
  8
3
  6
CENTER
 62
       163
100
AcDbLine
 10
20.767952
 20
20.3132862613
 30
0.0
 11
21.568252
 21
20.3132862613
 31
0.0
  0
LINE
  5
437
100
AcDbEntity
  8
3
  6
CENTER
 62
       163
100
AcDbLine
 10
20.767952
 20
17.8132862613
 30
0.0
 11
21.568252
 21
17.8132862613
 31
0.0
  0
LINE
  5
438
100
AcDbEntity
  8
3
  6
CENTER
 62
       131
100
AcDbLine
 10
16.957952
 20
18.4122862613
 30
0.0
 11
17.503952
 21
18.4122862613
 31
0.0
  0
LINE
  5
439
100
AcDbEntity
  8
3
  6
CENTER
 62
       131
100
AcDbLine
 10
20.031952
 20
18.4122862613
 30
0.0
 11
20.577952
 21
18.4122862613
 31
0.0
  0
LINE
  5
43A
100
AcDbEntity
  8
3
  6
CENTER
 62
       131
100
AcDbLine
 10
20.304952
 20
18.1342862613
 30
0.0
 11
20.304952
 21
18.6803862613
 31
0.0
  0
LINE
  5
43B
100
AcDbEntity
  8
3
  6
CENTER
 62
       131
100
AcDbLine
 10
17.230952
 20
18.1342862613
 30
0.0
 11
17.230952
 21
18.6803862613
 31
0.0
  0
LINE
  5
43C
100
AcDbEntity
  8
3
  6
CENTER
 62
       131
100
AcDbLine
 10
20.080452
 20
20.7192862613
 30
0.0
 11
20.705452
 21
20.7192862613
 31
0.0
  0
LINE
  5
43D
100
AcDbEntity
  8
3
  6
CENTER
 62
       131
100
AcDbLine
 10
20.455452
 20
20.4067862613
 30
0.0
 11
20.455452
 21
21.0317862613
 31
0.0
  0
LINE
  5
43E
100
AcDbEntity
  8
3
  6
CENTER
 62
       131
100
AcDbLine
 10
20.080452
 20
17.4072862613
 30
0.0
 11
20.705452
 21
17.4072862613
 31
0.0
  0
LINE
  5
43F
100
AcDbEntity
  8
3
  6
CENTER
 62
       131
100
AcDbLine
 10
20.455452
 20
17.0947862613
 30
0.0
 11
20.455452
 21
17.7197862613
 31
0.0
  0
LINE
  5
440
100
AcDbEntity
  8
3
  6
CENTER
 62
       131
100
AcDbLine
 10
17.080452
 20
17.4072862613
 30
0.0
 11
17.705452
 21
17.4072862613
 31
0.0
  0
LINE
  5
441
100
AcDbEntity
  8
3
  6
CENTER
 62
       131
100
AcDbLine
 10
17.455452
 20
17.0947862613
 30
0.0
 11
17.455452
 21
17.7197862613
 31
0.0
  0
LINE
  5
442
100
AcDbEntity
  8
3
  6
CENTER
 62
       131
100
AcDbLine
 10
17.080452
 20
20.7192862613
 30
0.0
 11
17.705452
 21
20.7192862613
 31
0.0
  0
LINE
  5
443
100
AcDbEntity
  8
3
  6
CENTER
 62
       131
100
AcDbLine
 10
17.455452
 20
20.4067862613
 30
0.0
 11
17.455452
 21
21.0317862613
 31
0.0
  0
LINE
  5
444
100
AcDbEntity
  8
3
  6
CENTER
 62
       131
100
AcDbLine
 10
16.767952
 20
20.3132862613
 30
0.0
 11
17.455452
 21
20.3132862613
 31
0.0
  0
LINE
  5
445
100
AcDbEntity
  8
3
  6
CENTER
 62
       131
100
AcDbLine
 10
16.767952
 20
17.8132862613
 30
0.0
 11
17.3343546671
 21
17.8132862613
 31
0.0
  0
LINE
  5
446
100
AcDbEntity
  8
3
  6
CENTER
 62
       221
100
AcDbLine
 10
16.030752
 20
20.3132862613
 30
0.0
 11
16.767952
 21
20.3132862613
 31
0.0
  0
LINE
  5
447
100
AcDbEntity
  8
3
  6
CENTER
 62
       221
100
AcDbLine
 10
16.067552
 20
17.8132862613
 30
0.0
 11
16.767952
 21
17.8132862613
 31
0.0
  0
LINE
  5
448
100
AcDbEntity
  8
3
  6
CENTER
 62
        15
100
AcDbLine
 10
21.375152
 20
20.5632862613
 30
0.0
 11
22.280852
 21
20.5632862613
 31
0.0
  0
LINE
  5
449
100
AcDbEntity
  8
3
  6
CENTER
 62
        15
100
AcDbLine
 10
21.391952
 20
17.5632862613
 30
0.0
 11
22.322752
 21
17.5632862613
 31
0.0
  0
LINE
  5
44A
100
AcDbEntity
  8
3
  6
CENTER
 62
        15
100
AcDbLine
 10
14.081452
 20
20.5632862613
 30
0.0
 11
15.451452
 21
20.5632862613
 31
0.0
  0
LINE
  5
44B
100
AcDbEntity
  8
3
  6
CENTER
 62
        15
100
AcDbLine
 10
14.081452
 20
17.5632862613
 30
0.0
 11
15.276652
 21
17.5632862613
 31
0.0
  0
LINE
  5
44C
100
AcDbEntity
  8
3
  6
CENTER
 62
        15
100
AcDbLine
 10
14.081452
 20
19.0632862613
 30
0.0
 11
29.794352
 21
19.0632862613
 31
0.0
  0
LINE
  5
44D
100
AcDbEntity
  8
3
  6
CENTER
 62
        15
100
AcDbLine
 10
21.831452
 20
16.8631862613
 30
0.0
 11
21.831452
 21
21.2634862613
 31
0.0
  0
CIRCLE
  5
44E
100
AcDbEntity
  8
3
  6
DASHED
 62
       131
100
AcDbCircle
 10
31.990052
 20
14.0910862613
 30
0.0
 40
0.1875
  0
CIRCLE
  5
44F
100
AcDbEntity
  8
3
  6
DASHED
 62
       131
100
AcDbCircle
 10
34.490052
 20
14.0910862613
 30
0.0
 40
0.1875
  0
CIRCLE
  5
450
100
AcDbEntity
  8
3
  6
CONTINUOUS
 62
       131
100
AcDbCircle
 10
31.990052
 20
14.0910862613
 30
0.0
 40
0.158
  0
CIRCLE
  5
451
100
AcDbEntity
  8
3
  6
CONTINUOUS
 62
       131
100
AcDbCircle
 10
34.490052
 20
14.0910862613
 30
0.0
 40
0.158
  0
CIRCLE
  5
452
100
AcDbEntity
  8
3
  6
CONTINUOUS
 62
       131
100
AcDbCircle
 10
31.990052
 20
14.0910862613
 30
0.0
 40
0.21875
  0
CIRCLE
  5
453
100
AcDbEntity
  8
3
  6
CONTINUOUS
 62
       131
100
AcDbCircle
 10
34.490052
 20
14.0910862613
 30
0.0
 40
0.21875
  0
CIRCLE
  5
454
100
AcDbEntity
  8
3
  6
CONTINUOUS
 62
         1
100
AcDbCircle
 10
4.377292
 20
11.6541262613
 30
0.0
 40
0.375
  0
CIRCLE
  5
455
100
AcDbEntity
  8
3
  6
CONTINUOUS
 62
         1
100
AcDbCircle
 10
4.377292
 20
11.6541262613
 30
0.0
 40
0.3125
  0
CIRCLE
  5
456
100
AcDbEntity
  8
3
  6
CONTINUOUS
 62
         1
100
AcDbCircle
 10
7.377272
 20
13.0290862613
 30
0.0
 40
0.28125
  0
CIRCLE
  5
457
100
AcDbEntity
  8
3
  6
CONTINUOUS
 62
         1
100
AcDbCircle
 10
7.377272
 20
13.0290862613
 30
0.0
 40
0.23
  0
CIRCLE
  5
458
100
AcDbEntity
  8
3
  6
CONTINUOUS
 62
         1
100
AcDbCircle
 10
4.377272
 20
13.0290862613
 30
0.0
 40
0.28125
  0
CIRCLE
  5
459
100
AcDbEntity
  8
3
  6
CONTINUOUS
 62
         1
100
AcDbCircle
 10
4.377272
 20
13.0290862613
 30
0.0
 40
0.23
  0
ARC
  5
45A
100
AcDbEntity
  8
3
  6
CONTINUOUS
 62
         6
100
AcDbCircle
 10
4.9267515878
 20
13.2924882291
 30
0.0
 40
0.2129963718
100
AcDbArc
 50
86.4953390278
 51
141.8413081348
  0
ARC
  5
45B
100
AcDbEntity
  8
3
  6
CONTINUOUS
 62
         6
100
AcDbCircle
 10
4.9525969126
 20
13.2920525787
 30
0.0
 40
0.2134193718
100
AcDbArc
 50
38.2182282225
 51
93.4451246149
  0
ARC
  5
45C
100
AcDbEntity
  8
3
  6
CONTINUOUS
 62
         6
100
AcDbCircle
 10
6.8017515878
 20
13.2924882291
 30
0.0
 40
0.2129963718
100
AcDbArc
 50
86.4953390278
 51
141.8413081348
  0
ARC
  5
45D
100
AcDbEntity
  8
3
  6
CONTINUOUS
 62
         6
100
AcDbCircle
 10
6.8275969126
 20
13.2920525787
 30
0.0
 40
0.2134193718
100
AcDbArc
 50
38.2182282225
 51
93.4451246149
  0
CIRCLE
  5
45E
100
AcDbEntity
  8
3
  6
CONTINUOUS
 62
         2
100
AcDbCircle
 10
5.877272
 20
12.5330862613
 30
0.0
 40
0.375
  0
CIRCLE
  5
45F
100
AcDbEntity
  8
3
  6
CONTINUOUS
 62
         4
100
AcDbCircle
 10
4.377272
 20
13.0290862613
 30
0.0
 40
0.2965
  0
CIRCLE
  5
460
100
AcDbEntity
  8
3
  6
CONTINUOUS
 62
         4
100
AcDbCircle
 10
7.377272
 20
13.0290862613
 30
0.0
 40
0.2965
  0
CIRCLE
  5
461
100
AcDbEntity
  8
3
  6
CONTINUOUS
 62
         4
100
AcDbCircle
 10
4.377292
 20
11.6541262613
 30
0.0
 40
0.3905
  0
ARC
  5
462
100
AcDbEntity
  8
3
  6
CONTINUOUS
 62
         1
100
AcDbCircle
 10
5.8773105186
 20
12.5331131625
 30
0.0
 40
0.7099985191
100
AcDbArc
 50
180.0021708853
 51
357.4792243581
  0
ARC
  5
463
100
AcDbEntity
  8
3
  6
CONTINUOUS
 62
         1
100
AcDbCircle
 10
5.8773116196
 20
12.5331093601
 30
0.0
 40
0.7099996199
100
AcDbArc
 50
2.5248105615
 51
180.0018640343
  0
ARC
  5
464
100
AcDbEntity
  8
3
  6
CONTINUOUS
 62
         1
100
AcDbCircle
 10
5.8773071539
 20
12.5331117799
 30
0.0
 40
0.7499951543
100
AcDbArc
 50
180.0019494908
 51
357.6138409757
  0
ARC
  5
465
100
AcDbEntity
  8
3
  6
CONTINUOUS
 62
         1
100
AcDbCircle
 10
5.877308196
 20
12.5331107427
 30
0.0
 40
0.7499961964
100
AcDbArc
 50
2.389978765
 51
180.0018702499
  0
ARC
  5
466
100
AcDbEntity
  8
3
  6
CONTINUOUS
 62
         1
100
AcDbCircle
 10
5.877290243
 20
12.533110814
 30
0.0
 40
0.3749982438
100
AcDbArc
 50
4.7841159481
 51
180.0037513931
  0
ARC
  5
467
100
AcDbEntity
  8
3
  6
CONTINUOUS
 62
         1
100
AcDbCircle
 10
5.877288156
 20
12.5331117086
 30
0.0
 40
0.3749961568
100
AcDbArc
 50
180.0038881016
 51
355.2235235466
  0
CIRCLE
  5
468
100
AcDbEntity
  8
3
  6
CONTINUOUS
 62
         2
100
AcDbCircle
 10
5.877292
 20
12.5330862613
 30
0.0
 40
0.280003
  0
CIRCLE
  5
469
100
AcDbEntity
  8
3
  6
CONTINUOUS
 62
         2
100
AcDbCircle
 10
5.877292
 20
12.5330862613
 30
0.0
 40
0.323298
  0
CIRCLE
  5
46A
100
AcDbEntity
  8
3
  6
CONTINUOUS
 62
         2
100
AcDbCircle
 10
5.877292
 20
12.5330862613
 30
0.0
 40
0.139999
  0
CIRCLE
  5
46B
100
AcDbEntity
  8
3
  6
CONTINUOUS
 62
         2
100
AcDbCircle
 10
5.877292
 20
12.5330862613
 30
0.0
 40
0.0625
  0
ARC
  5
46C
100
AcDbEntity
  8
3
  6
CONTINUOUS
 62
       221
100
AcDbCircle
 10
4.939767
 20
13.2941878112
 30
0.0
 40
0.2499953281
100
AcDbArc
 50
26.1040102148
 51
153.8959897852
  0
ARC
  5
46D
100
AcDbEntity
  8
3
  6
CONTINUOUS
 62
       221
100
AcDbCircle
 10
6.814772
 20
13.2941853613
 30
0.0
 40
0.250000896
100
AcDbArc
 50
26.1040102148
 51
153.8959897852
  0
CIRCLE
  5
46E
100
AcDbEntity
  8
3
  6
CONTINUOUS
 62
       221
100
AcDbCircle
 10
5.877312
 20
13.7470862613
 30
0.0
 40
0.202997
  0
CIRCLE
  5
46F
100
AcDbEntity
  8
3
  6
CONTINUOUS
 62
       221
100
AcDbCircle
 10
4.627312
 20
14.0910862613
 30
0.0
 40
0.296497
  0
CIRCLE
  5
470
100
AcDbEntity
  8
3
  6
CONTINUOUS
 62
       221
100
AcDbCircle
 10
7.127302
 20
14.0910862613
 30
0.0
 40
0.296497
  0
ARC
  5
471
100
AcDbEntity
  8
3
  6
CONTINUOUS
 62
         1
100
AcDbCircle
 10
13.0669843441
 20
13.0201510881
 30
0.0
 40
0.2029836873
100
AcDbArc
 50
88.7472923631
 51
168.0194804834
  0
ARC
  5
472
100
AcDbEntity
  8
3
  6
CONTINUOUS
 62
         1
100
AcDbCircle
 10
13.113699703
 20
13.0679217943
 30
0.0
 40
0.1608210682
100
AcDbArc
 50
357.9918155072
 51
465.2414116462
  0
ARC
  5
473
100
AcDbEntity
  8
3
  6
CONTINUOUS
 62
         6
100
AcDbCircle
 10
13.4904015878
 20
13.2924882291
 30
0.0
 40
0.2129963718
100
AcDbArc
 50
86.4953390278
 51
141.8413081348
  0
ARC
  5
474
100
AcDbEntity
  8
3
  6
CONTINUOUS
 62
         6
100
AcDbCircle
 10
13.5162626237
 20
13.2920254877
 30
0.0
 40
0.2134473585
100
AcDbArc
 50
38.2215686848
 51
93.4488973381
  0
CIRCLE
  5
475
100
AcDbEntity
  8
3
  6
CONTINUOUS
 62
         5
100
AcDbCircle
 10
14.331452
 20
19.5632862613
 30
0.0
 40
0.15625
  0
CIRCLE
  5
476
100
AcDbEntity
  8
3
  6
CONTINUOUS
 62
         5
100
AcDbCircle
 10
14.331452
 20
19.5632862613
 30
0.0
 40
0.125
  0
CIRCLE
  5
477
100
AcDbEntity
  8
3
  6
CONTINUOUS
 62
         5
100
AcDbCircle
 10
13.081422
 20
18.5625862613
 30
0.0
 40
0.15625
  0
CIRCLE
  5
478
100
AcDbEntity
  8
3
  6
CONTINUOUS
 62
         5
100
AcDbCircle
 10
13.081422
 20
18.5625862613
 30
0.0
 40
0.125
  0
CIRCLE
  5
479
100
AcDbEntity
  8
3
  6
CONTINUOUS
 62
         1
100
AcDbCircle
 10
13.081422
 20
18.5625862613
 30
0.0
 40
0.172
  0
CIRCLE
  5
47A
100
AcDbEntity
  8
3
  6
CONTINUOUS
 62
         1
100
AcDbCircle
 10
14.331452
 20
19.5632862613
 30
0.0
 40
0.172
  0
CIRCLE
  5
47B
100
AcDbEntity
  8
3
  6
CONTINUOUS
 62
         8
100
AcDbCircle
 10
13.503422
 20
18.1257862613
 30
0.0
 40
0.180496
  0
CIRCLE
  5
47C
100
AcDbEntity
  8
3
  6
CONTINUOUS
 62
         8
100
AcDbCircle
 10
13.503422
 20
18.1257862613
 30
0.0
 40
0.0949974
  0
CIRCLE
  5
47D
100
AcDbEntity
  8
3
  6
CONTINUOUS
 62
         8
100
AcDbCircle
 10
13.503422
 20
19.9989862613
 30
0.0
 40
0.180496
  0
CIRCLE
  5
47E
100
AcDbEntity
  8
3
  6
CONTINUOUS
 62
         8
100
AcDbCircle
 10
13.503422
 20
19.9989862613
 30
0.0
 40
0.0949974
  0
CIRCLE
  5
47F
100
AcDbEntity
  8
3
  6
CONTINUOUS
 62
         1
100
AcDbCircle
 10
26.207352
 20
20.7192862613
 30
0.0
 40
0.15625
  0
CIRCLE
  5
480
100
AcDbEntity
  8
3
  6
CONTINUOUS
 62
         1
100
AcDbCircle
 10
26.207352
 20
20.7192862613
 30
0.0
 40
0.1305
  0
CIRCLE
  5
481
100
AcDbEntity
  8
3
  6
CONTINUOUS
 62
         1
100
AcDbCircle
 10
23.207352
 20
20.7192862613
 30
0.0
 40
0.15625
  0
CIRCLE
  5
482
100
AcDbEntity
  8
3
  6
CONTINUOUS
 62
         1
100
AcDbCircle
 10
23.207352
 20
20.7192862613
 30
0.0
 40
0.1305
  0
CIRCLE
  5
483
100
AcDbEntity
  8
3
  6
CONTINUOUS
 62
         1
100
AcDbCircle
 10
23.207352
 20
17.4072862613
 30
0.0
 40
0.15625
  0
CIRCLE
  5
484
100
AcDbEntity
  8
3
  6
CONTINUOUS
 62
         1
100
AcDbCircle
 10
23.207352
 20
17.4072862613
 30
0.0
 40
0.1305
  0
CIRCLE
  5
485
100
AcDbEntity
  8
3
  6
CONTINUOUS
 62
         1
100
AcDbCircle
 10
26.207352
 20
17.4072862613
 30
0.0
 40
0.15625
  0
CIRCLE
  5
486
100
AcDbEntity
  8
3
  6
CONTINUOUS
 62
         1
100
AcDbCircle
 10
26.207352
 20
17.4072862613
 30
0.0
 40
0.1305
  0
CIRCLE
  5
487
100
AcDbEntity
  8
3
  6
DASHED
 62
       131
100
AcDbCircle
 10
23.357852
 20
19.7142862613
 30
0.0
 40
0.125
  0
CIRCLE
  5
488
100
AcDbEntity
  8
3
  6
CONTINUOUS
 62
       131
100
AcDbCircle
 10
23.357852
 20
19.7142862613
 30
0.0
 40
0.101999
  0
CIRCLE
  5
489
100
AcDbEntity
  8
3
  6
DASHED
 62
       131
100
AcDbCircle
 10
26.431852
 20
19.7142862613
 30
0.0
 40
0.125
  0
CIRCLE
  5
48A
100
AcDbEntity
  8
3
  6
CONTINUOUS
 62
       131
100
AcDbCircle
 10
26.431852
 20
19.7142862613
 30
0.0
 40
0.102
  0
ARC
  5
48B
100
AcDbEntity
  8
3
  6
CONTINUOUS
 62
       131
100
AcDbCircle
 10
25.769852
 20
19.7341862613
 30
0.0
 40
0.125
100
AcDbArc
 50
180.0
 51
360.0
  0
ARC
  5
48C
100
AcDbEntity
  8
3
  6
CONTINUOUS
 62
       131
100
AcDbCircle
 10
25.769852
 20
18.3924862613
 30
0.0
 40
0.125
100
AcDbArc
 50
0.0
 51
180.0
  0
CIRCLE
  5
48D
100
AcDbEntity
  8
3
  6
CONTINUOUS
 62
         1
100
AcDbCircle
 10
17.455452
 20
17.4072862613
 30
0.0
 40
0.15625
  0
CIRCLE
  5
48E
100
AcDbEntity
  8
3
  6
CONTINUOUS
 62
         1
100
AcDbCircle
 10
17.455452
 20
17.4072862613
 30
0.0
 40
0.1305
  0
CIRCLE
  5
48F
100
AcDbEntity
  8
3
  6
CONTINUOUS
 62
         1
100
AcDbCircle
 10
20.455452
 20
17.4072862613
 30
0.0
 40
0.15625
  0
CIRCLE
  5
490
100
AcDbEntity
  8
3
  6
CONTINUOUS
 62
         1
100
AcDbCircle
 10
20.455452
 20
17.4072862613
 30
0.0
 40
0.1305
  0
CIRCLE
  5
491
100
AcDbEntity
  8
3
  6
CONTINUOUS
 62
         1
100
AcDbCircle
 10
20.455452
 20
20.7192862613
 30
0.0
 40
0.15625
  0
CIRCLE
  5
492
100
AcDbEntity
  8
3
  6
CONTINUOUS
 62
         1
100
AcDbCircle
 10
20.455452
 20
20.7192862613
 30
0.0
 40
0.1305
  0
CIRCLE
  5
493
100
AcDbEntity
  8
3
  6
DASHED
 62
       131
100
AcDbCircle
 10
17.230952
 20
18.4122862613
 30
0.0
 40
0.125
  0
CIRCLE
  5
494
100
AcDbEntity
  8
3
  6
DASHED
 62
       131
100
AcDbCircle
 10
20.304952
 20
18.4122862613
 30
0.0
 40
0.125
  0
CIRCLE
  5
495
100
AcDbEntity
  8
3
  6
CONTINUOUS
 62
       131
100
AcDbCircle
 10
17.230952
 20
18.4122862613
 30
0.0
 40
0.102
  0
CIRCLE
  5
496
100
AcDbEntity
  8
3
  6
CONTINUOUS
 62
       131
100
AcDbCircle
 10
20.304952
 20
18.4122862613
 30
0.0
 40
0.101999
  0
CIRCLE
  5
497
100
AcDbEntity
  8
3
  6
DASHED
 62
       131
100
AcDbCircle
 10
17.455452
 20
20.7192862613
 30
0.0
 40
0.15625
  0
CIRCLE
  5
498
100
AcDbEntity
  8
3
  6
CONTINUOUS
 62
       131
100
AcDbCircle
 10
17.455452
 20
20.7192862613
 30
0.0
 40
0.1305
  0
ARC
  5
499
100
AcDbEntity
  8
3
  6
CONTINUOUS
 62
       131
100
AcDbCircle
 10
17.892952
 20
18.3924862613
 30
0.0
 40
0.125
100
AcDbArc
 50
0.0
 51
180.0
  0
ARC
  5
49A
100
AcDbEntity
  8
3
  6
CONTINUOUS
 62
       131
100
AcDbCircle
 10
17.892952
 20
19.7341862613
 30
0.0
 40
0.125
100
AcDbArc
 50
180.0
 51
360.0
  0
CIRCLE
  5
49B
100
AcDbEntity
  8
3
  6
CONTINUOUS
 62
        15
100
AcDbCircle
 10
21.831452
 20
20.5632862613
 30
0.0
 40
0.202999
  0
CIRCLE
  5
49C
100
AcDbEntity
  8
3
  6
CONTINUOUS
 62
        15
100
AcDbCircle
 10
21.831452
 20
17.5632862613
 30
0.0
 40
0.202999
  0
CIRCLE
  5
49D
100
AcDbEntity
  8
3
  6
CONTINUOUS
 62
        15
100
AcDbCircle
 10
21.831452
 20
20.5632862613
 30
0.0
 40
0.296499
  0
CIRCLE
  5
49E
100
AcDbEntity
  8
3
  6
CONTINUOUS
 62
        15
100
AcDbCircle
 10
21.831452
 20
17.5632862613
 30
0.0
 40
0.296499
  0
LINE
  5
49F
100
AcDbEntity
  8
3
  6
CONTINUOUS
 62
       221
100
AcDbLine
 10
3.892802
 20
14.5110862613
 30
0.0
 11
7.861792
 21
14.5110862613
 31
0.0
  0
LINE
  5
4A0
100
AcDbEntity
  8
3
  6
CONTINUOUS
 62
       131
100
AcDbLine
 10
3.892802
 20
14.5110862613
 30
0.0
 11
3.892802
 21
14.5190862613
 31
0.0
  0
LINE
  5
4A1
100
AcDbEntity
  8
3
  6
CONTINUOUS
 62
       131
100
AcDbLine
 10
7.861792
 20
14.5110862613
 30
0.0
 11
7.861792
 21
14.5190862613
 31
0.0
  0
LINE
  5
4A2
100
AcDbEntity
  8
3
  6
CONTINUOUS
 62
        15
100
AcDbLine
 10
33.6150491224
 20
11.7110862613
 30
0.0
 11
32.8650491224
 21
11.7110862613
 31
0.0
  0
LINE
  5
4A3
100
AcDbEntity
  8
3
  6
CONTINUOUS
 62
        15
100
AcDbLine
 10
33.6150491224
 20
11.6341362613
 30
0.0
 11
33.6150491224
 21
11.7110862613
 31
0.0
  0
LINE
  5
4A4
100
AcDbEntity
  8
3
  6
CONTINUOUS
 62
        15
100
AcDbLine
 10
32.8650491224
 20
11.6329610198
 30
0.0
 11
32.8650491224
 21
11.7110862613
 31
0.0
  0
ARC
  5
4A5
100
AcDbEntity
  8
3
  6
CONTINUOUS
 62
        15
100
AcDbCircle
 10
33.7400491224
 20
11.6990862613
 30
0.0
 40
0.125
100
AcDbArc
 50
180.0
 51
270.0
  0
ARC
  5
4A6
100
AcDbEntity
  8
3
  6
CONTINUOUS
 62
        15
100
AcDbCircle
 10
32.7400491224
 20
11.6990862613
 30
0.0
 40
0.125
100
AcDbArc
 50
270.0
 51
360.0
  0
ARC
  5
4A7
100
AcDbEntity
  8
3
  6
CONTINUOUS
 62
        15
100
AcDbCircle
 10
32.175052
 20
11.6941362613
 30
0.0
 40
0.12
100
AcDbArc
 50
180.0
 51
270.0
  0
ARC
  5
4A8
100
AcDbEntity
  8
3
  6
CONTINUOUS
 62
        15
100
AcDbCircle
 10
34.305052
 20
11.6941362613
 30
0.0
 40
0.12
100
AcDbArc
 50
270.0
 51
360.0
  0
ARC
  5
4A9
100
AcDbEntity
  8
3
  6
CONTINUOUS
 62
        15
100
AcDbCircle
 10
32.115052
 20
12.5141362613
 30
0.0
 40
0.06
100
AcDbArc
 50
90.0
 51
180.0
  0
ARC
  5
4AA
100
AcDbEntity
  8
3
  6
CONTINUOUS
 62
        15
100
AcDbCircle
 10
34.365052
 20
12.5141362613
 30
0.0
 40
0.06
100
AcDbArc
 50
0.0
 51
90.0
  0
LINE
  5
4AB
100
AcDbEntity
  8
3
  6
CONTINUOUS
 62
        15
100
AcDbLine
 10
32.055052
 20
11.6941362613
 30
0.0
 11
32.055052
 21
12.5141362613
 31
0.0
  0
LINE
  5
4AC
100
AcDbEntity
  8
3
  6
CONTINUOUS
 62
        15
100
AcDbLine
 10
34.425052
 20
11.6941362613
 30
0.0
 11
34.425052
 21
12.5141362613
 31
0.0
  0
LINE
  5
4AD
100
AcDbEntity
  8
3
  6
CONTINUOUS
 62
        15
100
AcDbLine
 10
31.300052
 20
11.5741362613
 30
0.0
 11
31.430052
 21
11.5741362613
 31
0.0
  0
LINE
  5
4AE
100
AcDbEntity
  8
3
  6
CONTINUOUS
 62
        15
100
AcDbLine
 10
31.300052
 20
12.5741362613
 30
0.0
 11
31.4300577551
 21
12.5741362613
 31
0.0
  0
LINE
  5
4AF
100
AcDbEntity
  8
3
  6
CONTINUOUS
 62
        15
100
AcDbLine
 10
31.300052
 20
12.4181362613
 30
0.0
 11
31.460052
 21
12.4181362613
 31
0.0
  0
LINE
  5
4B0
100
AcDbEntity
  8
3
  6
CONTINUOUS
 62
        15
100
AcDbLine
 10
31.300052
 20
11.7301362613
 30
0.0
 11
31.460052
 21
11.7301362613
 31
0.0
  0
LINE
  5
4B1
100
AcDbEntity
  8
3
  6
CONTINUOUS
 62
        15
100
AcDbLine
 10
31.490052
 20
11.7151362613
 30
0.0
 11
31.490052
 21
12.3431362613
 31
0.0
  0
ARC
  5
4B2
100
AcDbEntity
  8
3
  6
CONTINUOUS
 62
        15
100
AcDbCircle
 10
31.460052
 20
12.3881362613
 30
0.0
 40
0.03
100
AcDbArc
 50
0.0
 51
90.0
  0
ARC
  5
4B3
100
AcDbEntity
  8
3
  6
CONTINUOUS
 62
        15
100
AcDbCircle
 10
31.460052
 20
11.7601362613
 30
0.0
 40
0.03
100
AcDbArc
 50
270.0
 51
360.0
  0
LINE
  5
4B4
100
AcDbEntity
  8
3
  6
CONTINUOUS
 62
        15
100
AcDbLine
 10
31.490052
 20
11.6341362613
 30
0.0
 11
31.490052
 21
12.5149672725
 31
0.0
  0
ARC
  5
4B5
100
AcDbEntity
  8
3
  6
CONTINUOUS
 62
        15
100
AcDbCircle
 10
31.4300577551
 20
12.5141362613
 30
0.0
 40
0.06
100
AcDbArc
 50
0.0
 51
90.0
  0
ARC
  5
4B6
100
AcDbEntity
  8
3
  6
CONTINUOUS
 62
        15
100
AcDbCircle
 10
31.430052
 20
11.6341362613
 30
0.0
 40
0.06
100
AcDbArc
 50
270.0
 51
360.0
  0
LINE
  5
4B7
100
AcDbEntity
  8
3
  6
CONTINUOUS
 62
        15
100
AcDbLine
 10
35.180052
 20
12.5741362613
 30
0.0
 11
35.0500462449
 21
12.5741362613
 31
0.0
  0
LINE
  5
4B8
100
AcDbEntity
  8
3
  6
CONTINUOUS
 62
        15
100
AcDbLine
 10
35.180052
 20
12.4181362613
 30
0.0
 11
35.020052
 21
12.4181362613
 31
0.0
  0
ARC
  5
4B9
100
AcDbEntity
  8
3
  6
CONTINUOUS
 62
        15
100
AcDbCircle
 10
35.0500462449
 20
12.5141362613
 30
0.0
 40
0.06
100
AcDbArc
 50
90.0
 51
180.0
  0
LINE
  5
4BA
100
AcDbEntity
  8
3
  6
CONTINUOUS
 62
        15
100
AcDbLine
 10
34.990052
 20
11.6341362613
 30
0.0
 11
34.990052
 21
12.5149672725
 31
0.0
  0
ARC
  5
4BB
100
AcDbEntity
  8
3
  6
CONTINUOUS
 62
        15
100
AcDbCircle
 10
35.020052
 20
12.3881362613
 30
0.0
 40
0.03
100
AcDbArc
 50
90.0
 51
180.0
  0
LINE
  5
4BC
100
AcDbEntity
  8
3
  6
CONTINUOUS
 62
        15
100
AcDbLine
 10
35.180052
 20
11.7301362613
 30
0.0
 11
35.020052
 21
11.7301362613
 31
0.0
  0
ARC
  5
4BD
100
AcDbEntity
  8
3
  6
CONTINUOUS
 62
        15
100
AcDbCircle
 10
35.020052
 20
11.7601362613
 30
0.0
 40
0.03
100
AcDbArc
 50
180.0
 51
270.0
  0
ARC
  5
4BE
100
AcDbEntity
  8
3
  6
CONTINUOUS
 62
        15
100
AcDbCircle
 10
35.050052
 20
11.6341362613
 30
0.0
 40
0.06
100
AcDbArc
 50
180.0
 51
270.0
  0
LINE
  5
4BF
100
AcDbEntity
  8
3
  6
CONTINUOUS
 62
        15
100
AcDbLine
 10
35.180052
 20
11.5741362613
 30
0.0
 11
35.050052
 21
11.5741362613
 31
0.0
  0
LINE
  5
4C0
100
AcDbEntity
  8
3
  6
CONTINUOUS
 62
        15
100
AcDbLine
 10
31.240052
 20
12.4781362613
 30
0.0
 11
31.300052
 21
12.4181362613
 31
0.0
  0
LINE
  5
4C1
100
AcDbEntity
  8
3
  6
CONTINUOUS
 62
        15
100
AcDbLine
 10
31.240052
 20
12.6341362613
 30
0.0
 11
31.300052
 21
12.5741362613
 31
0.0
  0
LINE
  5
4C2
100
AcDbEntity
  8
3
  6
CONTINUOUS
 62
        15
100
AcDbLine
 10
31.240052
 20
11.6701362613
 30
0.0
 11
31.300052
 21
11.7301362613
 31
0.0
  0
LINE
  5
4C3
100
AcDbEntity
  8
3
  6
CONTINUOUS
 62
        15
100
AcDbLine
 10
31.300052
 20
11.5741362613
 30
0.0
 11
31.240052
 21
11.5141362613
 31
0.0
  0
LINE
  5
4C4
100
AcDbEntity
  8
3
  6
CONTINUOUS
 62
        15
100
AcDbLine
 10
35.240052
 20
12.4781362613
 30
0.0
 11
35.180052
 21
12.4181362613
 31
0.0
  0
LINE
  5
4C5
100
AcDbEntity
  8
3
  6
CONTINUOUS
 62
        15
100
AcDbLine
 10
35.180052
 20
11.7301362613
 30
0.0
 11
35.240052
 21
11.6701362613
 31
0.0
  0
LINE
  5
4C6
100
AcDbEntity
  8
3
  6
CONTINUOUS
 62
        15
100
AcDbLine
 10
35.240052
 20
12.6341362613
 30
0.0
 11
35.180052
 21
12.5741362613
 31
0.0
  0
LINE
  5
4C7
100
AcDbEntity
  8
3
  6
CONTINUOUS
 62
        15
100
AcDbLine
 10
35.180052
 20
11.5741362613
 30
0.0
 11
35.240052
 21
11.5141362613
 31
0.0
  0
LINE
  5
4C8
100
AcDbEntity
  8
3
  6
CONTINUOUS
 62
        15
100
AcDbLine
 10
3.877312
 20
12.4781362613
 30
0.0
 11
3.937312
 21
12.4181362613
 31
0.0
  0
LINE
  5
4C9
100
AcDbEntity
  8
3
  6
CONTINUOUS
 62
        15
100
AcDbLine
 10
3.877312
 20
12.6341362613
 30
0.0
 11
3.937312
 21
12.5741362613
 31
0.0
  0
LINE
  5
4CA
100
AcDbEntity
  8
3
  6
CONTINUOUS
 62
        15
100
AcDbLine
 10
3.877312
 20
11.6701362613
 30
0.0
 11
3.937312
 21
11.7301362613
 31
0.0
  0
LINE
  5
4CB
100
AcDbEntity
  8
3
  6
CONTINUOUS
 62
        15
100
AcDbLine
 10
3.937312
 20
11.5741362613
 30
0.0
 11
3.877312
 21
11.5141362613
 31
0.0
  0
LINE
  5
4CC
100
AcDbEntity
  8
3
  6
CONTINUOUS
 62
        15
100
AcDbLine
 10
7.877312
 20
12.4781362613
 30
0.0
 11
7.817312
 21
12.4181362613
 31
0.0
  0
LINE
  5
4CD
100
AcDbEntity
  8
3
  6
CONTINUOUS
 62
        15
100
AcDbLine
 10
7.817312
 20
11.7301362613
 30
0.0
 11
7.877312
 21
11.6701362613
 31
0.0
  0
LINE
  5
4CE
100
AcDbEntity
  8
3
  6
CONTINUOUS
 62
        15
100
AcDbLine
 10
7.877312
 20
12.6341362613
 30
0.0
 11
7.817312
 21
12.5741362613
 31
0.0
  0
LINE
  5
4CF
100
AcDbEntity
  8
3
  6
CONTINUOUS
 62
        15
100
AcDbLine
 10
33.7368870978
 20
11.5741262613
 30
0.0
 11
34.305052
 21
11.5741262613
 31
0.0
  0
ARC
  5
4D0
100
AcDbEntity
  8
3
  6
CONTINUOUS
 62
        15
100
AcDbCircle
 10
34.425052
 20
12.5141362613
 30
0.0
 40
0.06
100
AcDbArc
 50
0.0
 51
90.0
  0
ARC
  5
4D1
100
AcDbEntity
  8
3
  6
CONTINUOUS
 62
        15
100
AcDbCircle
 10
34.3650517406
 20
11.6341362613
 30
0.0
 40
0.12
100
AcDbArc
 50
270.0
 51
360.0
  0
LINE
  5
4D2
100
AcDbEntity
  8
3
  6
CONTINUOUS
 62
        15
100
AcDbLine
 10
34.4850517406
 20
11.6341362613
 30
0.0
 11
34.4850517406
 21
12.5143126922
 31
0.0
  0
LINE
  5
4D3
100
AcDbEntity
  8
3
  6
CONTINUOUS
 62
        15
100
AcDbLine
 10
35.2400517406
 20
11.5141362613
 30
0.0
 11
34.9900517406
 21
11.5141362613
 31
0.0
  0
ARC
  5
4D4
100
AcDbEntity
  8
3
  6
CONTINUOUS
 62
        15
100
AcDbCircle
 10
34.9900517406
 20
11.5741362613
 30
0.0
 40
0.06
100
AcDbArc
 50
180.0
 51
270.0
  0
LINE
  5
4D5
100
AcDbEntity
  8
3
  6
CONTINUOUS
 62
        15
100
AcDbLine
 10
34.9300517406
 20
11.5741362613
 30
0.0
 11
34.9300517406
 21
12.5741362613
 31
0.0
  0
ARC
  5
4D6
100
AcDbEntity
  8
3
  6
CONTINUOUS
 62
        15
100
AcDbCircle
 10
34.9900517406
 20
12.5741362613
 30
0.0
 40
0.06
100
AcDbArc
 50
90.0
 51
180.0
  0
LINE
  5
4D7
100
AcDbEntity
  8
3
  6
CONTINUOUS
 62
        15
100
AcDbLine
 10
35.2400517406
 20
12.6341362613
 30
0.0
 11
34.9900517406
 21
12.6341362613
 31
0.0
  0
ARC
  5
4D8
100
AcDbEntity
  8
3
  6
CONTINUOUS
 62
        15
100
AcDbCircle
 10
32.055052
 20
12.5141362613
 30
0.0
 40
0.06
100
AcDbArc
 50
90.0
 51
180.0
  0
ARC
  5
4D9
100
AcDbEntity
  8
3
  6
CONTINUOUS
 62
        15
100
AcDbCircle
 10
32.115052
 20
11.6341362613
 30
0.0
 40
0.12
100
AcDbArc
 50
180.0
 51
270.0
  0
LINE
  5
4DA
100
AcDbEntity
  8
3
  6
CONTINUOUS
 62
        15
100
AcDbLine
 10
31.995052
 20
11.6341362613
 30
0.0
 11
31.995052
 21
12.5141362613
 31
0.0
  0
ARC
  5
4DB
100
AcDbEntity
  8
3
  6
CONTINUOUS
 62
        15
100
AcDbCircle
 10
31.490052
 20
11.5741362613
 30
0.0
 40
0.06
100
AcDbArc
 50
270.0
 51
360.0
  0
ARC
  5
4DC
100
AcDbEntity
  8
3
  6
CONTINUOUS
 62
        15
100
AcDbCircle
 10
31.490052
 20
12.5741362613
 30
0.0
 40
0.06
100
AcDbArc
 50
0.0
 51
90.0
  0
LINE
  5
4DD
100
AcDbEntity
  8
3
  6
CONTINUOUS
 62
        15
100
AcDbLine
 10
31.240052
 20
11.5141362613
 30
0.0
 11
31.490052
 21
11.5141362613
 31
0.0
  0
LINE
  5
4DE
100
AcDbEntity
  8
3
  6
CONTINUOUS
 62
        15
100
AcDbLine
 10
31.550052
 20
11.5741362613
 30
0.0
 11
31.550052
 21
12.5741362613
 31
0.0
  0
LINE
  5
4DF
100
AcDbEntity
  8
3
  6
CONTINUOUS
 62
        15
100
AcDbLine
 10
31.240052
 20
12.6341362613
 30
0.0
 11
31.490052
 21
12.6341362613
 31
0.0
  0
LINE
  5
4E0
100
AcDbEntity
  8
3
  6
CONTINUOUS
 62
        15
100
AcDbLine
 10
34.3650517406
 20
11.5141362613
 30
0.0
 11
33.7350491224
 21
11.5141362613
 31
0.0
  0
ARC
  5
4E1
100
AcDbEntity
  8
3
  6
CONTINUOUS
 62
        15
100
AcDbCircle
 10
33.7350491224
 20
11.6341362613
 30
0.0
 40
0.12
100
AcDbArc
 50
180.0
 51
270.0
  0
LINE
  5
4E2
100
AcDbEntity
  8
3
  6
CENTER
 62
        15
100
AcDbLine
 10
16.831452
 20
6.8404140662
 30
0.0
 11
16.831452
 21
5.9751447963
 31
0.0
  0
LINE
  5
4E3
100
AcDbEntity
  8
3
  6
CONTINUOUS
 62
        15
100
AcDbLine
 10
14.081951
 20
8.3928857111
 30
0.0
 11
29.581951
 21
8.3928857111
 31
0.0
  0
LINE
  5
4E4
100
AcDbEntity
  8
3
  6
CONTINUOUS
 62
        15
100
AcDbLine
 10
14.081951
 20
4.3928857111
 30
0.0
 11
29.581951
 21
4.3928857111
 31
0.0
  0
LINE
  5
4E5
100
AcDbEntity
  8
3
  6
CENTER
 62
        15
100
AcDbLine
 10
30.1370548112
 20
6.3928857111
 30
0.0
 11
13.331921
 21
6.3928857111
 31
0.0
  0
LINE
  5
4E6
100
AcDbEntity
  8
3
  6
CENTER
 62
        15
100
AcDbLine
 10
21.831452
 20
8.5782528944
 30
0.0
 11
21.831452
 21
4.0767115086
 31
0.0
  0
ARC
  5
4E7
100
AcDbEntity
  8
3
  6
CONTINUOUS
 62
        15
100
AcDbCircle
 10
16.831452
 20
6.3928857111
 30
0.0
 40
0.3125
100
AcDbArc
 50
173.4215509301
 51
350.3968061368
  0
LINE
  5
4E8
100
AcDbEntity
  8
3
  6
CONTINUOUS
 62
        15
100
AcDbLine
 10
14.081951
 20
8.3928857111
 30
0.0
 11
14.081951
 21
7.1478857111
 31
0.0
  0
LINE
  5
4E9
100
AcDbEntity
  8
3
  6
CONTINUOUS
 62
        15
100
AcDbLine
 10
29.581951
 20
8.3928857111
 30
0.0
 11
29.581951
 21
4.3928857111
 31
0.0
  0
TEXT
  5
4EA
100
AcDbEntity
  8
3
  6
CONTINUOUS
 62
        15
100
AcDbText
 10
15.0078657029
 20
12.4186088022
 30
0.0
 40
0.24
  1
D40
 50
270.0
 41
0.9
100
AcDbText
  0
TEXT
  5
4EB
100
AcDbEntity
  8
3
  6
CONTINUOUS
 62
        15
100
AcDbText
 10
14.6238657029
 20
12.4186088022
 30
0.0
 40
0.24
  1
24A
 50
270.0
 41
0.9
100
AcDbText
  0
LINE
  5
4EC
100
AcDbEntity
  8
3
  6
CENTER
 62
        15
100
AcDbLine
 10
18.456452
 20
5.5803857111
 30
0.0
 11
17.706452
 21
5.5803857111
 31
0.0
  0
LINE
  5
4ED
100
AcDbEntity
  8
3
  6
CENTER
 62
        15
100
AcDbLine
 10
18.081452
 20
5.9553857111
 30
0.0
 11
18.081452
 21
5.2053857111
 31
0.0
  0
LINE
  5
4EE
100
AcDbEntity
  8
3
  6
CENTER
 62
        15
100
AcDbLine
 10
25.956452
 20
5.5803857111
 30
0.0
 11
25.206452
 21
5.5803857111
 31
0.0
  0
LINE
  5
4EF
100
AcDbEntity
  8
3
  6
CENTER
 62
        15
100
AcDbLine
 10
25.581452
 20
5.9553857111
 30
0.0
 11
25.581452
 21
5.2053857111
 31
0.0
  0
LINE
  5
4F0
100
AcDbEntity
  8
3
  6
CENTER
 62
        15
100
AcDbLine
 10
18.456452
 20
7.2053857111
 30
0.0
 11
17.706452
 21
7.2053857111
 31
0.0
  0
LINE
  5
4F1
100
AcDbEntity
  8
3
  6
CENTER
 62
        15
100
AcDbLine
 10
18.081452
 20
7.5803857111
 30
0.0
 11
18.081452
 21
6.8303857111
 31
0.0
  0
LINE
  5
4F2
100
AcDbEntity
  8
3
  6
CENTER
 62
        15
100
AcDbLine
 10
25.956452
 20
7.2053857111
 30
0.0
 11
25.206452
 21
7.2053857111
 31
0.0
  0
LINE
  5
4F3
100
AcDbEntity
  8
3
  6
CENTER
 62
        15
100
AcDbLine
 10
25.581452
 20
7.5803857111
 30
0.0
 11
25.581452
 21
6.8303857111
 31
0.0
  0
LINE
  5
4F4
100
AcDbEntity
  8
3
  6
CONTINUOUS
 62
        15
100
AcDbLine
 10
14.081951
 20
7.1478857111
 30
0.0
 11
14.706951
 21
7.1478857111
 31
0.0
  0
LINE
  5
4F5
100
AcDbEntity
  8
3
  6
CONTINUOUS
 62
        15
100
AcDbLine
 10
14.081951
 20
5.6378857111
 30
0.0
 11
14.706951
 21
5.6378857111
 31
0.0
  0
ARC
  5
4F6
100
AcDbEntity
  8
3
  6
CONTINUOUS
 62
        15
100
AcDbCircle
 10
16.831452
 20
6.3928857111
 30
0.0
 40
0.3125
100
AcDbArc
 50
350.3968061368
 51
533.4215509301
  0
ARC
  5
4F7
100
AcDbEntity
  8
3
  6
CONTINUOUS
 62
        15
100
AcDbCircle
 10
26.831452
 20
6.3928857111
 30
0.0
 40
0.3125
100
AcDbArc
 50
350.3968061368
 51
533.4215509301
  0
ARC
  5
4F8
100
AcDbEntity
  8
3
  6
CONTINUOUS
 62
        15
100
AcDbCircle
 10
26.831452
 20
6.3928857111
 30
0.0
 40
0.3125
100
AcDbArc
 50
173.4215509301
 51
350.3968061368
  0
LINE
  5
4F9
100
AcDbEntity
  8
3
  6
CENTER
 62
        15
100
AcDbLine
 10
26.831452
 20
6.8404140662
 30
0.0
 11
26.831452
 21
5.9751447963
 31
0.0
  0
LINE
  5
4FA
100
AcDbEntity
  8
3
  6
CENTER
 62
        15
100
AcDbLine
 10
22.2317651567
 20
7.8928857111
 30
0.0
 11
21.4291535932
 21
7.8928857111
 31
0.0
  0
LINE
  5
4FB
100
AcDbEntity
  8
3
  6
CENTER
 62
        15
100
AcDbLine
 10
17.894452
 20
6.815500706
 30
0.0
 11
17.894452
 21
5.9609914281
 31
0.0
  0
ARC
  5
4FC
100
AcDbEntity
  8
3
  6
CONTINUOUS
 62
        15
100
AcDbCircle
 10
17.894452
 20
6.3928857111
 30
0.0
 40
0.315
100
AcDbArc
 50
297.7955167187
 51
429.7000779945
  0
LINE
  5
4FD
100
AcDbEntity
  8
3
  6
CENTER
 62
        15
100
AcDbLine
 10
25.768452
 20
6.815500706
 30
0.0
 11
25.768452
 21
5.9609914281
 31
0.0
  0
ARC
  5
4FE
100
AcDbEntity
  8
3
  6
CONTINUOUS
 62
        15
100
AcDbCircle
 10
17.894452
 20
6.3928857111
 30
0.0
 40
0.315
100
AcDbArc
 50
69.7000779945
 51
297.7955167187
  0
ARC
  5
4FF
100
AcDbEntity
  8
3
  6
CONTINUOUS
 62
        15
100
AcDbCircle
 10
25.768452
 20
6.3928857111
 30
0.0
 40
0.315
100
AcDbArc
 50
242.2044832813
 51
470.2999220055
  0
ARC
  5
500
100
AcDbEntity
  8
3
  6
CONTINUOUS
 62
        15
100
AcDbCircle
 10
25.768452
 20
6.3928857111
 30
0.0
 40
0.315
100
AcDbArc
 50
110.2999220055
 51
242.2044832813
  0
INSERT
  5
515
100
AcDbEntity
  8
0
  6
CONTINUOUS
100
AcDbBlockReference
  2
*X0
 10
0.0
 20
0.0
 30
0.0
  0
INSERT
  5
52A
100
AcDbEntity
  8
0
  6
CONTINUOUS
100
AcDbBlockReference
  2
*X1
 10
0.0
 20
0.0
 30
0.0
  0
LINE
  5
52B
100
AcDbEntity
  8
3
  6
CENTER
 62
        15
100
AcDbLine
 10
22.2317651567
 20
4.8928857111
 30
0.0
 11
21.4291535932
 21
4.8928857111
 31
0.0
  0
CIRCLE
  5
52C
100
AcDbEntity
  8
3
  6
CONTINUOUS
 62
        15
100
AcDbCircle
 10
16.831452
 20
6.3928857111
 30
0.0
 40
0.3425
  0
CIRCLE
  5
52D
100
AcDbEntity
  8
3
  6
CONTINUOUS
 62
        15
100
AcDbCircle
 10
26.831452
 20
6.3928857111
 30
0.0
 40
0.3425
  0
CIRCLE
  5
52E
100
AcDbEntity
  8
3
  6
CONTINUOUS
 62
        15
100
AcDbCircle
 10
25.768452
 20
6.3928857111
 30
0.0
 40
0.34495
  0
CIRCLE
  5
52F
100
AcDbEntity
  8
3
  6
CONTINUOUS
 62
        15
100
AcDbCircle
 10
17.894452
 20
6.3928857111
 30
0.0
 40
0.34495
  0
CIRCLE
  5
530
100
AcDbEntity
  8
3
  6
CONTINUOUS
 62
        15
100
AcDbCircle
 10
21.831452
 20
7.8928857111
 30
0.0
 40
0.203
  0
CIRCLE
  5
531
100
AcDbEntity
  8
3
  6
CONTINUOUS
 62
        15
100
AcDbCircle
 10
21.831452
 20
4.8928857111
 30
0.0
 40
0.203
  0
CIRCLE
  5
532
100
AcDbEntity
  8
3
  6
DASHED
 62
        15
100
AcDbCircle
 10
21.831452
 20
7.8928857111
 30
0.0
 40
0.2965
  0
CIRCLE
  5
533
100
AcDbEntity
  8
3
  6
DASHED
 62
        15
100
AcDbCircle
 10
21.831452
 20
4.8928857111
 30
0.0
 40
0.2965
  0
LINE
  5
534
100
AcDbEntity
  8
3
  6
CONTINUOUS
 62
        15
100
AcDbLine
 10
21.581202
 20
8.3928857111
 30
0.0
 11
21.581202
 21
4.3928857111
 31
0.0
  0
LINE
  5
535
100
AcDbEntity
  8
3
  6
CONTINUOUS
 62
        15
100
AcDbLine
 10
22.081702
 20
8.3928857111
 30
0.0
 11
22.081702
 21
4.3928857111
 31
0.0
  0
CIRCLE
  5
536
100
AcDbEntity
  8
3
  6
CONTINUOUS
 62
        15
100
AcDbCircle
 10
21.831452
 20
6.3928857111
 30
0.0
 40
0.172
  0
CIRCLE
  5
537
100
AcDbEntity
  8
3
  6
DASHED
 62
        15
100
AcDbCircle
 10
21.831452
 20
6.3928857111
 30
0.0
 40
0.25
  0
LINE
  5
538
100
AcDbEntity
  8
3
  6
CENTER
 62
        15
100
AcDbLine
 10
22.013947731
 20
5.3303857111
 30
0.0
 11
21.6421323583
 21
5.3303857111
 31
0.0
  0
LINE
  5
539
100
AcDbEntity
  8
3
  6
CENTER
 62
        15
100
AcDbLine
 10
21.9931251583
 20
7.4553857111
 30
0.0
 11
21.6879538726
 21
7.4553857111
 31
0.0
  0
CIRCLE
  5
53A
100
AcDbEntity
  8
3
  6
DASHED
 62
        15
100
AcDbCircle
 10
21.831452
 20
7.4553857111
 30
0.0
 40
0.095
  0
CIRCLE
  5
53B
100
AcDbEntity
  8
3
  6
CONTINUOUS
 62
        15
100
AcDbCircle
 10
21.831452
 20
7.4553857111
 30
0.0
 40
0.076
  0
CIRCLE
  5
53C
100
AcDbEntity
  8
3
  6
CONTINUOUS
 62
        15
100
AcDbCircle
 10
21.831452
 20
5.3303857111
 30
0.0
 40
0.076
  0
CIRCLE
  5
53D
100
AcDbEntity
  8
3
  6
DASHED
 62
        15
100
AcDbCircle
 10
21.831452
 20
5.3303857111
 30
0.0
 40
0.095
  0
CIRCLE
  5
53E
100
AcDbEntity
  8
3
  6
CONTINUOUS
 62
        15
100
AcDbCircle
 10
21.831452
 20
7.4553857111
 30
0.0
 40
0.105
  0
CIRCLE
  5
53F
100
AcDbEntity
  8
3
  6
CONTINUOUS
 62
        15
100
AcDbCircle
 10
21.831452
 20
5.3303857111
 30
0.0
 40
0.105
  0
LINE
  5
540
100
AcDbEntity
  8
3
  6
CONTINUOUS
 62
        15
100
AcDbLine
 10
14.706951
 20
5.6428857111
 30
0.0
 11
14.706951
 21
7.1428857111
 31
0.0
  0
LINE
  5
541
100
AcDbEntity
  8
3
  6
CONTINUOUS
 62
        15
100
AcDbLine
 10
14.706951
 20
7.5178857111
 30
0.0
 11
14.081951
 21
7.5178857111
 31
0.0
  0
LINE
  5
542
100
AcDbEntity
  8
3
  6
CONTINUOUS
 62
        15
100
AcDbLine
 10
14.706951
 20
5.2678857111
 30
0.0
 11
14.081951
 21
5.2678857111
 31
0.0
  0
LINE
  5
543
100
AcDbEntity
  8
3
  6
CONTINUOUS
 62
        15
100
AcDbLine
 10
14.706951
 20
7.1428857111
 30
0.0
 11
14.706951
 21
7.5178857111
 31
0.0
  0
LINE
  5
544
100
AcDbEntity
  8
3
  6
CONTINUOUS
 62
        15
100
AcDbLine
 10
14.706951
 20
5.2678857111
 30
0.0
 11
14.706951
 21
5.6428857111
 31
0.0
  0
LINE
  5
545
100
AcDbEntity
  8
3
  6
CONTINUOUS
 62
        15
100
AcDbLine
 10
14.081951
 20
5.6378857111
 30
0.0
 11
14.081951
 21
4.3928857111
 31
0.0
  0
LINE
  5
546
100
AcDbEntity
  8
3
  6
CONTINUOUS
 62
        15
100
AcDbLine
 10
14.706951
 20
7.296830807
 30
0.0
 11
14.081951
 21
7.296830807
 31
0.0
  0
LINE
  5
547
100
AcDbEntity
  8
3
  6
CONTINUOUS
 62
        15
100
AcDbLine
 10
14.706951
 20
5.4947637836
 30
0.0
 11
14.081951
 21
5.4947637836
 31
0.0
  0
LINE
  5
548
100
AcDbEntity
  8
3
  6
CONTINUOUS
 62
         4
100
AcDbLine
 10
13.331921
 20
4.4553857111
 30
0.0
 11
14.081951
 21
4.4553857111
 31
0.0
  0
LINE
  5
549
100
AcDbEntity
  8
3
  6
CONTINUOUS
 62
         4
100
AcDbLine
 10
13.331921
 20
8.3303857111
 30
0.0
 11
14.081951
 21
8.3303857111
 31
0.0
  0
LINE
  5
54A
100
AcDbEntity
  8
3
  6
CONTINUOUS
 62
         4
100
AcDbLine
 10
13.331921
 20
4.4553857111
 30
0.0
 11
13.331921
 21
8.3303857111
 31
0.0
  0
LINE
  5
54B
100
AcDbEntity
  8
3
  6
CENTER
 62
         4
100
AcDbLine
 10
13.184241
 20
4.8928857111
 30
0.0
 11
14.081951
 21
4.8928857111
 31
0.0
  0
LINE
  5
54C
100
AcDbEntity
  8
3
  6
CENTER
 62
         4
100
AcDbLine
 10
13.059241
 20
7.8928857111
 30
0.0
 11
14.081951
 21
7.8928857111
 31
0.0
  0
LINE
  5
54D
100
AcDbEntity
  8
3
  6
CONTINUOUS
 62
         4
100
AcDbLine
 10
14.081951
 20
8.3303857111
 30
0.0
 11
14.081951
 21
4.4553857111
 31
0.0
  0
LINE
  5
54E
100
AcDbEntity
  8
3
  6
CONTINUOUS
 62
         1
100
AcDbLine
 10
14.081951
 20
5.6836857111
 30
0.0
 11
14.121951
 21
5.6436857111
 31
0.0
  0
LINE
  5
54F
100
AcDbEntity
  8
3
  6
CONTINUOUS
 62
         1
100
AcDbLine
 10
14.541951
 20
5.6436857111
 30
0.0
 11
14.581951
 21
5.6836857111
 31
0.0
  0
LINE
  5
550
100
AcDbEntity
  8
3
  6
CONTINUOUS
 62
         1
100
AcDbLine
 10
14.581951
 20
5.6836857111
 30
0.0
 11
14.581951
 21
7.1036857111
 31
0.0
  0
LINE
  5
551
100
AcDbEntity
  8
3
  6
CONTINUOUS
 62
         1
100
AcDbLine
 10
14.541951
 20
7.1436857111
 30
0.0
 11
14.581951
 21
7.1036857111
 31
0.0
  0
LINE
  5
552
100
AcDbEntity
  8
3
  6
CONTINUOUS
 62
         1
100
AcDbLine
 10
14.081951
 20
7.1036857111
 30
0.0
 11
14.121951
 21
7.1436857111
 31
0.0
  0
LINE
  5
553
100
AcDbEntity
  8
3
  6
CONTINUOUS
 62
         1
100
AcDbLine
 10
13.291921
 20
7.1421857111
 30
0.0
 11
13.331921
 21
7.1021857111
 31
0.0
  0
LINE
  5
554
100
AcDbEntity
  8
3
  6
CONTINUOUS
 62
         1
100
AcDbLine
 10
12.871921
 20
7.1421857111
 30
0.0
 11
13.291921
 21
7.1421857111
 31
0.0
  0
LINE
  5
555
100
AcDbEntity
  8
3
  6
CONTINUOUS
 62
         1
100
AcDbLine
 10
12.831921
 20
7.1021857111
 30
0.0
 11
12.871921
 21
7.1421857111
 31
0.0
  0
LINE
  5
556
100
AcDbEntity
  8
3
  6
CONTINUOUS
 62
         1
100
AcDbLine
 10
12.831921
 20
5.6821857111
 30
0.0
 11
12.831921
 21
7.1021857111
 31
0.0
  0
LINE
  5
557
100
AcDbEntity
  8
3
  6
CONTINUOUS
 62
         1
100
AcDbLine
 10
12.831921
 20
5.6821857111
 30
0.0
 11
12.871921
 21
5.6421857111
 31
0.0
  0
LINE
  5
558
100
AcDbEntity
  8
3
  6
CONTINUOUS
 62
         1
100
AcDbLine
 10
12.871921
 20
5.6421857111
 30
0.0
 11
13.291921
 21
5.6421857111
 31
0.0
  0
LINE
  5
559
100
AcDbEntity
  8
3
  6
CONTINUOUS
 62
         1
100
AcDbLine
 10
13.291921
 20
5.6421857111
 30
0.0
 11
13.331921
 21
5.6821857111
 31
0.0
  0
LINE
  5
55A
100
AcDbEntity
  8
3
  6
CONTINUOUS
 62
         2
100
AcDbLine
 10
11.674001
 20
6.2151857111
 30
0.0
 11
11.706921
 21
6.2315857111
 31
0.0
  0
LINE
  5
55B
100
AcDbEntity
  8
3
  6
CONTINUOUS
 62
         2
100
AcDbLine
 10
11.659001
 20
6.1993857111
 30
0.0
 11
11.674001
 21
6.2151857111
 31
0.0
  0
LINE
  5
55C
100
AcDbEntity
  8
3
  6
CONTINUOUS
 62
         2
100
AcDbLine
 10
11.648321
 20
6.1786857111
 30
0.0
 11
11.659001
 21
6.1993857111
 31
0.0
  0
LINE
  5
55D
100
AcDbEntity
  8
3
  6
CONTINUOUS
 62
         2
100
AcDbLine
 10
11.644411
 20
6.1550857111
 30
0.0
 11
11.648321
 21
6.1786857111
 31
0.0
  0
LINE
  5
55E
100
AcDbEntity
  8
3
  6
CONTINUOUS
 62
         2
100
AcDbLine
 10
11.644411
 20
6.1550857111
 30
0.0
 11
11.648321
 21
6.1316857111
 31
0.0
  0
LINE
  5
55F
100
AcDbEntity
  8
3
  6
CONTINUOUS
 62
         2
100
AcDbLine
 10
11.648321
 20
6.1316857111
 30
0.0
 11
11.659001
 21
6.1113857111
 31
0.0
  0
LINE
  5
560
100
AcDbEntity
  8
3
  6
CONTINUOUS
 62
         2
100
AcDbLine
 10
11.659001
 20
6.1113857111
 30
0.0
 11
11.674001
 21
6.0960857111
 31
0.0
  0
LINE
  5
561
100
AcDbEntity
  8
3
  6
CONTINUOUS
 62
         2
100
AcDbLine
 10
11.674001
 20
6.0960857111
 30
0.0
 11
11.690641
 21
6.0861857111
 31
0.0
  0
LINE
  5
562
100
AcDbEntity
  8
3
  6
CONTINUOUS
 62
         2
100
AcDbLine
 10
11.690641
 20
6.0861857111
 30
0.0
 11
11.706921
 21
6.0807857111
 31
0.0
  0
LINE
  5
563
100
AcDbEntity
  8
3
  6
CONTINUOUS
 62
         2
100
AcDbLine
 10
11.706921
 20
6.0807857111
 30
0.0
 11
12.696921
 21
6.0807857111
 31
0.0
  0
LINE
  5
564
100
AcDbEntity
  8
3
  6
CONTINUOUS
 62
         2
100
AcDbLine
 10
12.696921
 20
6.0807857111
 30
0.0
 11
12.733001
 21
6.0170857111
 31
0.0
  0
LINE
  5
565
100
AcDbEntity
  8
3
  6
CONTINUOUS
 62
         2
100
AcDbLine
 10
12.733001
 20
6.0170857111
 30
0.0
 11
12.831921
 21
6.0170857111
 31
0.0
  0
LINE
  5
566
100
AcDbEntity
  8
3
  6
CONTINUOUS
 62
         2
100
AcDbLine
 10
14.581951
 20
6.0170857111
 30
0.0
 11
14.680851
 21
6.0170857111
 31
0.0
  0
LINE
  5
567
100
AcDbEntity
  8
3
  6
CONTINUOUS
 62
         2
100
AcDbLine
 10
14.680851
 20
6.0170857111
 30
0.0
 11
14.706951
 21
6.0631402818
 31
0.0
  0
LINE
  5
568
100
AcDbEntity
  8
3
  6
CONTINUOUS
 62
         2
100
AcDbLine
 10
14.680851
 20
6.7670857111
 30
0.0
 11
14.706951
 21
6.7227663206
 31
0.0
  0
LINE
  5
569
100
AcDbEntity
  8
3
  6
CONTINUOUS
 62
         2
100
AcDbLine
 10
14.581951
 20
6.7670857111
 30
0.0
 11
14.680851
 21
6.7670857111
 31
0.0
  0
LINE
  5
56A
100
AcDbEntity
  8
3
  6
CONTINUOUS
 62
         2
100
AcDbLine
 10
12.733001
 20
6.7670857111
 30
0.0
 11
12.831921
 21
6.7670857111
 31
0.0
  0
LINE
  5
56B
100
AcDbEntity
  8
3
  6
CONTINUOUS
 62
         2
100
AcDbLine
 10
12.696921
 20
6.7057857111
 30
0.0
 11
12.733001
 21
6.7670857111
 31
0.0
  0
LINE
  5
56C
100
AcDbEntity
  8
3
  6
CONTINUOUS
 62
         2
100
AcDbLine
 10
11.706921
 20
6.7057857111
 30
0.0
 11
12.696921
 21
6.7057857111
 31
0.0
  0
LINE
  5
56D
100
AcDbEntity
  8
3
  6
CONTINUOUS
 62
         2
100
AcDbLine
 10
11.674001
 20
6.6903857111
 30
0.0
 11
11.706921
 21
6.7057857111
 31
0.0
  0
LINE
  5
56E
100
AcDbEntity
  8
3
  6
CONTINUOUS
 62
         2
100
AcDbLine
 10
11.659001
 20
6.6751857111
 30
0.0
 11
11.674001
 21
6.6903857111
 31
0.0
  0
LINE
  5
56F
100
AcDbEntity
  8
3
  6
CONTINUOUS
 62
         2
100
AcDbLine
 10
11.648321
 20
6.6548857111
 30
0.0
 11
11.659001
 21
6.6751857111
 31
0.0
  0
LINE
  5
570
100
AcDbEntity
  8
3
  6
CONTINUOUS
 62
         2
100
AcDbLine
 10
11.644421
 20
6.6314857111
 30
0.0
 11
11.648321
 21
6.6548857111
 31
0.0
  0
LINE
  5
571
100
AcDbEntity
  8
3
  6
CONTINUOUS
 62
         2
100
AcDbLine
 10
11.644421
 20
6.6314857111
 30
0.0
 11
11.648321
 21
6.6077857111
 31
0.0
  0
LINE
  5
572
100
AcDbEntity
  8
3
  6
CONTINUOUS
 62
         2
100
AcDbLine
 10
11.648321
 20
6.6077857111
 30
0.0
 11
11.659001
 21
6.5871857111
 31
0.0
  0
LINE
  5
573
100
AcDbEntity
  8
3
  6
CONTINUOUS
 62
         2
100
AcDbLine
 10
11.659001
 20
6.5871857111
 30
0.0
 11
11.674001
 21
6.5713857111
 31
0.0
  0
LINE
  5
574
100
AcDbEntity
  8
3
  6
CONTINUOUS
 62
         2
100
AcDbLine
 10
11.674001
 20
6.5713857111
 30
0.0
 11
11.690641
 21
6.5608857111
 31
0.0
  0
LINE
  5
575
100
AcDbEntity
  8
3
  6
CONTINUOUS
 62
         2
100
AcDbLine
 10
11.690641
 20
6.5608857111
 30
0.0
 11
11.706921
 21
6.5548857111
 31
0.0
  0
LINE
  5
576
100
AcDbEntity
  8
3
  6
CONTINUOUS
 62
         2
100
AcDbLine
 10
11.668961
 20
6.4990857111
 30
0.0
 11
11.706921
 21
6.5548857111
 31
0.0
  0
LINE
  5
577
100
AcDbEntity
  8
3
  6
CONTINUOUS
 62
         2
100
AcDbLine
 10
11.655641
 20
6.4658857111
 30
0.0
 11
11.668961
 21
6.4990857111
 31
0.0
  0
LINE
  5
578
100
AcDbEntity
  8
3
  6
CONTINUOUS
 62
         2
100
AcDbLine
 10
11.647271
 20
6.4301857111
 30
0.0
 11
11.655641
 21
6.4658857111
 31
0.0
  0
LINE
  5
579
100
AcDbEntity
  8
3
  6
CONTINUOUS
 62
         2
100
AcDbLine
 10
11.644411
 20
6.3932857111
 30
0.0
 11
11.647271
 21
6.4301857111
 31
0.0
  0
LINE
  5
57A
100
AcDbEntity
  8
3
  6
CONTINUOUS
 62
         2
100
AcDbLine
 10
11.644411
 20
6.3932857111
 30
0.0
 11
11.647271
 21
6.3562857111
 31
0.0
  0
LINE
  5
57B
100
AcDbEntity
  8
3
  6
CONTINUOUS
 62
         2
100
AcDbLine
 10
11.647271
 20
6.3562857111
 30
0.0
 11
11.655641
 21
6.3206857111
 31
0.0
  0
LINE
  5
57C
100
AcDbEntity
  8
3
  6
CONTINUOUS
 62
         2
100
AcDbLine
 10
11.655641
 20
6.3206857111
 30
0.0
 11
11.668961
 21
6.2874857111
 31
0.0
  0
LINE
  5
57D
100
AcDbEntity
  8
3
  6
CONTINUOUS
 62
         2
100
AcDbLine
 10
11.668961
 20
6.2874857111
 30
0.0
 11
11.686381
 21
6.2575857111
 31
0.0
  0
LINE
  5
57E
100
AcDbEntity
  8
3
  6
CONTINUOUS
 62
         2
100
AcDbLine
 10
11.686381
 20
6.2575857111
 30
0.0
 11
11.706921
 21
6.2315857111
 31
0.0
  0
LINE
  5
57F
100
AcDbEntity
  8
3
  6
CONTINUOUS
 62
         2
100
AcDbLine
 10
14.680851
 20
6.0170857111
 30
0.0
 11
14.680851
 21
6.7670857111
 31
0.0
  0
LINE
  5
580
100
AcDbEntity
  8
3
  6
CONTINUOUS
 62
         2
100
AcDbLine
 10
12.696921
 20
6.0807857111
 30
0.0
 11
12.696921
 21
6.7057857111
 31
0.0
  0
LINE
  5
581
100
AcDbEntity
  8
3
  6
CONTINUOUS
 62
         2
100
AcDbLine
 10
12.733001
 20
6.0170857111
 30
0.0
 11
12.733001
 21
6.7670857111
 31
0.0
  0
LINE
  5
582
100
AcDbEntity
  8
3
  6
CONTINUOUS
 62
         2
100
AcDbLine
 10
11.644421
 20
6.1509857111
 30
0.0
 11
11.644421
 21
6.6354857111
 31
0.0
  0
LINE
  5
583
100
AcDbEntity
  8
3
  6
CONTINUOUS
 62
         2
100
AcDbLine
 10
11.706921
 20
6.5548857111
 30
0.0
 11
12.644891
 21
6.5548857111
 31
0.0
  0
LINE
  5
584
100
AcDbEntity
  8
3
  6
CONTINUOUS
 62
         2
100
AcDbLine
 10
11.706921
 20
6.2315857111
 30
0.0
 11
12.644901
 21
6.2315857111
 31
0.0
  0
LINE
  5
585
100
AcDbEntity
  8
3
  6
CONTINUOUS
 62
         2
100
AcDbLine
 10
12.644901
 20
6.0807857111
 30
0.0
 11
12.644901
 21
6.7057857111
 31
0.0
  0
LINE
  5
586
100
AcDbEntity
  8
3
  6
CENTER
 62
         2
100
AcDbLine
 10
11.439321
 20
6.3932857111
 30
0.0
 11
13.331921
 21
6.3919857111
 31
0.0
  0
LINE
  5
587
100
AcDbEntity
  8
3
  6
CENTER
 62
         1
100
AcDbLine
 10
12.9193674228
 20
6.8935857111
 30
0.0
 11
13.208924871
 21
6.8935857111
 31
0.0
  0
LINE
  5
588
100
AcDbEntity
  8
3
  6
CENTER
 62
         1
100
AcDbLine
 10
13.081921
 20
7.0681087931
 30
0.0
 11
13.081921
 21
6.7451408701
 31
0.0
  0
LINE
  5
589
100
AcDbEntity
  8
3
  6
CONTINUOUS
 62
         1
100
AcDbLine
 10
12.871921
 20
5.6421857111
 30
0.0
 11
12.871921
 21
7.1421857111
 31
0.0
  0
LINE
  5
58A
100
AcDbEntity
  8
3
  6
CONTINUOUS
 62
         1
100
AcDbLine
 10
13.291921
 20
5.6421857111
 30
0.0
 11
13.291921
 21
7.1421857111
 31
0.0
  0
LINE
  5
58B
100
AcDbEntity
  8
3
  6
CENTER
 62
         1
100
AcDbLine
 10
14.1788821236
 20
5.8928857111
 30
0.0
 11
14.4647523798
 21
5.8928857111
 31
0.0
  0
LINE
  5
58C
100
AcDbEntity
  8
3
  6
CENTER
 62
         1
100
AcDbLine
 10
14.331951
 20
6.0215482447
 30
0.0
 11
14.331951
 21
5.7291313414
 31
0.0
  0
LINE
  5
58D
100
AcDbEntity
  8
3
  6
CONTINUOUS
 62
         1
100
AcDbLine
 10
14.541951
 20
5.6436857111
 30
0.0
 11
14.541951
 21
7.1436857111
 31
0.0
  0
LINE
  5
58E
100
AcDbEntity
  8
3
  6
CONTINUOUS
 62
         1
100
AcDbLine
 10
14.121951
 20
5.6436857111
 30
0.0
 11
14.121951
 21
7.1436857111
 31
0.0
  0
CIRCLE
  5
58F
100
AcDbEntity
  8
3
  6
DASHED
 62
        15
100
AcDbCircle
 10
25.581452
 20
7.2053857111
 30
0.0
 40
0.25
  0
CIRCLE
  5
590
100
AcDbEntity
  8
3
  6
DASHED
 62
        15
100
AcDbCircle
 10
25.581452
 20
5.5803857111
 30
0.0
 40
0.25
  0
CIRCLE
  5
591
100
AcDbEntity
  8
3
  6
DASHED
 62
        15
100
AcDbCircle
 10
18.081452
 20
7.2053857111
 30
0.0
 40
0.25
  0
CIRCLE
  5
592
100
AcDbEntity
  8
3
  6
DASHED
 62
        15
100
AcDbCircle
 10
18.081452
 20
5.5803857111
 30
0.0
 40
0.25
  0
CIRCLE
  5
593
100
AcDbEntity
  8
3
  6
CONTINUOUS
 62
        15
100
AcDbCircle
 10
25.581452
 20
7.2053857111
 30
0.0
 40
0.172
  0
CIRCLE
  5
594
100
AcDbEntity
  8
3
  6
CONTINUOUS
 62
        15
100
AcDbCircle
 10
25.581452
 20
5.5803857111
 30
0.0
 40
0.172
  0
CIRCLE
  5
595
100
AcDbEntity
  8
3
  6
CONTINUOUS
 62
        15
100
AcDbCircle
 10
18.081452
 20
7.2053857111
 30
0.0
 40
0.172
  0
CIRCLE
  5
596
100
AcDbEntity
  8
3
  6
CONTINUOUS
 62
        15
100
AcDbCircle
 10
18.081452
 20
5.5803857111
 30
0.0
 40
0.172
  0
ENDSEC
  0
SECTION
  2
OBJECTS
  0
DICTIONARY
  5
19
100
AcDbDictionary
  3
ACAD_GROUP
350
1A
  3
ACAD_MLINESTYLE
350
1B
  0
DICTIONARY
  5
1A
102
{ACAD_REACTORS
330
19
102
}
100
AcDbDictionary
  0
DICTIONARY
  5
1B
102
{ACAD_REACTORS
330
19
102
}
100
AcDbDictionary
  3
STANDARD
350
1C
  0
MLINESTYLE
  5
1C
102
{ACAD_REACTORS
330
1B
102
}
100
AcDbMlineStyle
  2
STANDARD
 70
         0
  3

 62
         0
 51
90.0
 52
90.0
 71
         2
 49
0.5
 62
       256
  6
BYLAYER
 49
-0.5
 62
       256
  6
BYLAYER
  0
ENDSEC
  0
EOF
